Cifra Club

Aprenda

Só Hoje

Jota Quest

Tab de bajo: Principal
Hoje eu preciso...
G||-----------------------|----------------------| |
D||-----------------------|----------------------| |
A||-----------------------|--2----2----2----2----| |
E||---0----0----0----0----|----------------------| |
 Casa depois                                     | | 2x
G||-----------------------|----------------------| |
D||-----------------------|----------------------| |
A||---4----4----4---4-----|---0----0---0----0----| |
E||-----------------------|----------------------| |

[ ]Hoje eu preciso ti abraçar...
G||-----------------------|----------------------| |
D||-----------------------|----------------------| |--> 8x
A||-----------------------|--2----2----2----2----| |
E||---3----2----2----2----|----------------------| |

Hoje preciso de você...
G||-----------------------|----------------------| |
D||-----------------------|----------------------| |
A||-----------------------|----------------------| |
E||---0----0----0----0----|--2----2----2----2----| |
                                                 | |-->2X (REFRAO)
G||-----------------------|----------------------| |
D||-----------------------|----------------------| |
A||---2----2----2----2----|----------------------| |
E||-----------------------|---0---0---0---0------| |(Corda A solta na segunda vez)

G||-----------------------|----------------------| |
D||-----------------------|----------------------| |
A||---5----5----5----5----|--0----0----0----0----| |
E||-----------------------|----------------------| |

[ ]

G||-----------------------|----------------------| |
D||-----------------------|----------------------| |--> 3x
A||---5----5----5----5----|--0----0----0----0----| | -5--5---5--5- SOLO DO MEIO
E||-----------------------|----------------------| |

G||-----------------------|----------------------|
D||-----------------------|----------------------|
A||-----------------------|--5----5----5----5----|
E||---3----3----3----3----|----------------------|


G||-----------------------|----------------------| |
D||-----------------------|----------------------| |
A||-----------------------|--3----3----3----3----| |
E||---0----0----0----0----|----------------------| |

G||-----------------------|----------------------| |
D||-----------------------|----------------------| |-->2X
A||---0----0----0----0----|--5----5----5----5----| |
E||-----------------------|----------------------| |


G||-----------------------|----------------------| |
D||-----------------------|----------------------| |
A||-----------------------|--0----0----0----0----| |
E||---3----3----3----3----|----------------------| |
...                                                |--> 2x
G||-----------------------|----------------------| |
D||-----------------------|----------------------| |
A||---5----5----5----5----|----------------------| |
E||-----------------------|--3----3----3----3----| |


G||-----------------------|----------------------| |
D||-----------------------|----------------------| |
A||---3----3----3----3----|----------------------| |
E||-----------------------|--3----3----3----3----| |
Composição de Rogério Flausino
Colaboración y revision:
  • Matheus Garbato
  • João Vitor
89 reproducciones

0 comentarios

Ver todos os comentários
00:00 / 00:00
outros vídeos desta música
repetir qualidade Automático
Outros vídeos desta música
00:00 / 00:00
Automático
OK