Cifra Club

Se me olvidó otra vez

Juan Gabriel

Cifrado: Principal (guitarra y guitarra eléctrica)
Acompaña nuestras novedades de Cifra Club en español.
¡Sigue nuestro perfil en Instagram!
tono: A

Parte 1
E|---5--5--3--5--3--5--2--2---2--|-7--5--5--3--7--7--5--7--5--7---|
B|---7--7--5--7--5--7--3--3---3--|-8--7--7--5--8--8--7--8--7--8---|
G|-------------------------------|--------------------------------|
D|-------------------------------|--------------------------------|
A—------------------------------|—-------------------------------|
E|-------------------------------|--------------------------------|

E|--3--3--3---9--7--7--5--|---10--10--9---10--9--|-10---5--5---5--|
B|--5--5--5--10--8--8--7--|---12--12--10--12--10-|-12---7--7---7--|
G|------------------------|----------------------|----------------|
D—-----------------------|----------------------|----------------|
A|------------------------|----------------------|----------------|
E|------------------------|----------------------|----------------|

E|---12--10--10--9---9---|--7--9---7--9---9---|--10--9---10--9--7-5-|
B|---14--12--12--10--10--|--8--10--8--10--10--|--12--10--12--10-8-7-|
G|----------------------|--------------------|---------------------|
D|----------------------|--------------------|---------------------|
A—----------------------|--------------------|---------------------|
E|-----------------------|--------------------|---------------------|

Parte 2
E|---5--5--3--5--3--5--2--2---2--|-7--5--5--3--7--7--5--7--5--7---|
B|---7--7--5--7--5--7--3--3---3--|-8--7--7--5--8--8--7--8--7--8---|
G|-------------------------------|--------------------------------|
D|-------------------------------|--------------------------------|
A—------------------------------|—-------------------------------|
E|-------------------------------|--------------------------------|

E|--3--3--3---9--7--7--5--|---10--10--9---10--9--|-10---5--5---5--|
B|--5--5--5--10--8--8--7--|---12--12--10--12--10-|-12---7--7---7--|
G|------------------------|----------------------|----------------|
D—-----------------------|----------------------|----------------|
A|------------------------|----------------------|----------------|
E|------------------------|----------------------|----------------|

E|---12--10--10--9---9---|--7--9---7--9---9---|--10--9---10--9--7--|
B|---14--12--12--10--10--|--8--10--8--10--10--|--12--10--12--10-8--|
G|----------------------|--------------------|--------------------|
D|----------------------|--------------------|--------------------|
A—----------------------|--------------------|--------------------|
E|-----------------------|--------------------|--------------------|



Parte 3
e--2—2-2--3--5--7--9--10--9--10—9-|-7--5--9---7-—9---9--10—9--10-|
b--3—3-3--5--7--8--10—12--10-12-10|-8--7--10--8--10--10-12-10-12-|
G|---------------------------------|---------------------------------|
D|---------------------------------|---------------------------------|
A—--------------------------------|—--------------------------------|
E|---------------------------------|---------------------------------|

e—-9--7--5--2—2-2--3--5--7-|-9--10--9--10—9--7—-5---5-5-5—-10—10-10|
B|--10-8--7--3| —3-3--5--7--8-|-10—12--10-12-10--7---7-7--12—12-12|
g—-------------------------|---------------------------------------|
D|--------------------------|---------------------------------------|
a—-------------------------|---------------------------------------|
e|--------------------------|---------------------------------------|

E|--9---5--7--5--7--5--3--2--|
B|--10--7--8--7--8--7--5--3--|
G|---------------------------|
D|---------------------------|
A—--------------------------|
E|---------------------------|
Composición de Juan Gabriel
18 vistas
    • ½ Tono
    • A
    • Bb
    • B
    • C
    • Db
    • D
    • Eb
    • E
    • F
    • F#
    • G
    • Ab
  • Agregar a la lista

    0 comentarios

    Ver todos los comentarios

    ¿Lograste tocar?

    0 Tocaron 0 Aún no

    ¡Graba un video tocando Se me olvidó otra vez y envíanoslo!

    00:00 / 00:00
    Outros vídeos desta música
    Repetir Calidad Automático
    Outros vídeos desta música
    00:00 / 00:00
    Automático
    OK