Cifra Club

La Camisa Negra

Juanes

Cifrado: Principal (guitarra y guitarra eléctrica)
tono: F#m
[Intro] F#m  C#7/G#  
        F#m  Bm  C#7/G#
        F#m  C#7/G#  
        F#m  Bm  C#7/G#  F#m

[Tab - Solo]

Parte 1 de 6
E|------------------------------------------|
B|------------------------------------------|
G|-1/2-2-1/2-2-1/2-2--2/4-4-3/4-4-3-4-4-----|
D|-3/4-4-3/4-4-3/4-4--4/6-6-5/6-6-5-6-6-----|
A|------------------------------------------|
E|------------------------------------------|

Parte 2 de 6
E|------------------------------------------|
B|----------------------7-7-6---------------|
G|-4/6-6-5/6-6-5/6-6-7--7-7-6b7r6-7-6-4-2-2-|
D|-6/7-7-6/7-7-6/7-7-9------------9-7-6-4---|
A|------------------------------------------|
E|------------------------------------------|

Parte 3 de 6
E|------------------------------------------|
B|------------------------------------------|
G|-2---2-6-6p2---2-6-6p2---2-----4-4--------|
D|---4---------4---------4---4/6------------|
A|------------------------------------------|
E|------------------------------------------|

Parte 4 de 6
E|------------------------------------------|
B|------------------------------------------|
G|-4---4-7-7p4---4-7-7p4---4----2-2---------|
D|---6---------6---------6---4--------------|
A|------------------------------------------|
E|------------------------------------------|

Parte 5 de 6
E|------------------------------------------|
B|------------------------------------------|
G|-2---2-6-6p2---2-6-6p2---2-----4-4-6-6/7--|
D|---4---------4---------4---4/6------------|
A|------------------------------------------|
E|------------------------------------------|

Parte 6 de 6
E|------------------------------------------|
B|-------------2--------------2-------------|
G|-6-6p4---------2---2-2--------2---2-------|
D|-------7-6-4-----4---4----4-----4------4--|
A|------------------------4------------4----|
E|------------------------------------------|

[Primeira Parte]

                 C#7/G#
Tengo la camisa negra
                     F#m
Hoy mi amor está de luto
                          Bm
Hoy tengo en el alma una pena
          C#7/G#         F#m
Y es por culpa de tu embrujo
                          C#7/G#
Hoy sé que tú ya no me quieres
                         F#m
Y eso es lo que más me hiere
                     Bm
Que tengo la camisa negra
       C#7/G#       F#m
Y una pena que me duele

                           C#7/G#
Mal parece que solo me quedé
                      F#m
Y fue pura todita tu mentira
                            Bm
Que maldita mala suerte la mía
           C#7/G#       F#
Que aquel día te encontré

[Pré-Refrão]

       G#m       A#m    B           F#
Por beber del veneno malevo de tu amor
       G#m    A#m      B         F#
Yo quedé moribundo y lleno de dolor
      G#m       A#m   B             F#
Respiré de ese humo amargo de tu adiós
          G#m       A#m      B    F#m
Y desde que tú te fuiste yo solo tengo

[Refrão]

                 C#7/G#
Tengo la camisa negra
                      F#m
Porque negra tengo el alma
                    Bm
Yo por ti perdí la calma
         C#7/G#         F#m
Y casi pierdo hasta mi cama
                      C#7/G#
Cama, cama, come on, baby
                 F#m
Te digo con disimulo
                     Bm
Que tengo la camisa negra
       C#7/G#        F#m
Y debajo tengo el difunto

[Solo] F#m  C#7/G#  
       F#m  Bm  C#7/G#
       F#m  C#7/G#  
       F#m  Bm  C#7/G#  F#m

[Tab - Solo]

Parte 1 de 6
E|------------------------------------------|
B|------------------------------------------|
G|-1/2-2-1/2-2-1/2-2--2/4-4-3/4-4-3-4-4-----|
D|-3/4-4-3/4-4-3/4-4--4/6-6-5/6-6-5-6-6-----|
A|------------------------------------------|
E|------------------------------------------|

Parte 2 de 6
E|------------------------------------------|
B|----------------------7-7-6---------------|
G|-4/6-6-5/6-6-5/6-6-7--7-7-6b7r6-7-6-4-2-2-|
D|-6/7-7-6/7-7-6/7-7-9------------9-7-6-4---|
A|------------------------------------------|
E|------------------------------------------|

Parte 3 de 6
E|------------------------------------------|
B|------------------------------------------|
G|-2---2-6-6p2---2-6-6p2---2-----4-4--------|
D|---4---------4---------4---4/6------------|
A|------------------------------------------|
E|------------------------------------------|

Parte 4 de 6
E|------------------------------------------|
B|------------------------------------------|
G|-4---4-7-7p4---4-7-7p4---4----2-2---------|
D|---6---------6---------6---4--------------|
A|------------------------------------------|
E|------------------------------------------|

Parte 5 de 6
E|------------------------------------------|
B|------------------------------------------|
G|-2---2-6-6p2---2-6-6p2---2-----4-4-6-6/7--|
D|---4---------4---------4---4/6------------|
A|------------------------------------------|
E|------------------------------------------|

Parte 6 de 6
E|------------------------------------------|
B|-------------2--------------2-------------|
G|-6-6p4---------2---2-2--------2---2-------|
D|-------7-6-4-----4---4----4-----4------4--|
A|------------------------4------------4----|
E|------------------------------------------|

[Segunda Parte]

                 C#7/G#
Tengo la camisa negra
                    F#m
Ya tu amor no me interesa
                        Bm
Lo que ayer me supo a gloria
        C#7/G#
Hoy me sabe a pura
  F#m
Miércoles por la tarde 
              C#7/G#
Y tú que no llegas
                      F#m
Ni siquiera muestras señas
                    Bm
Y yo con la camisa negra
         C#7/G#       F#m
Y tus maletas en la puerta

                           C#7/G#
Mal parece que solo me quedé
                      F#m
Y fue pura todita tu mentira
                            Bm
Que maldita mala suerte la mía
           C#7/G#       F#
Que aquel día te encontré

[Pré-Refrão]

       G#m       A#m    B           F#
Por beber del veneno malevo de tu amor
       G#m    A#m      B         F#
Yo quedé moribundo y lleno de dolor
      G#m       A#m   B             F#
Respiré de ese humo amargo de tu adiós
          G#m       A#m      B    F#m
Y desde que tú te fuiste yo solo tengo

[Refrão Final]

[Tab - Solo]

Parte 1 de 6
E|------------------------------------------|
B|------------------------------------------|
G|-1/2-2-1/2-2-1/2-2--2/4-4-3/4-4-3-4-4-----|
D|-3/4-4-3/4-4-3/4-4--4/6-6-5/6-6-5-6-6-----|
A|------------------------------------------|
E|------------------------------------------|

Parte 2 de 6
E|------------------------------------------|
B|----------------------7-7-6---------------|
G|-4/6-6-5/6-6-5/6-6-7--7-7-6b7r6-7-6-4-2-2-|
D|-6/7-7-6/7-7-6/7-7-9------------9-7-6-4---|
A|------------------------------------------|
E|------------------------------------------|

Parte 3 de 6
E|------------------------------------------|
B|------------------------------------------|
G|-2---2-6-6p2---2-6-6p2---2-----4-4--------|
D|---4---------4---------4---4/6------------|
A|------------------------------------------|
E|------------------------------------------|

Parte 4 de 6
E|------------------------------------------|
B|------------------------------------------|
G|-4---4-7-7p4---4-7-7p4---4----2-2---------|
D|---6---------6---------6---4--------------|
A|------------------------------------------|
E|------------------------------------------|

Parte 5 de 6
E|------------------------------------------|
B|------------------------------------------|
G|-2---2-6-6p2---2-6-6p2---2-----4-4-6-6/7--|
D|---4---------4---------4---4/6------------|
A|------------------------------------------|
E|------------------------------------------|

Parte 6 de 6
E|------------------------------------------|
B|-------------2--------------2-------------|
G|-6-6p4---------2---2-2--------2---2-------|
D|-------7-6-4-----4---4----4-----4------4--|
A|------------------------4------------4----|
E|------------------------------------------|

                 C#7/G#
Tengo la camisa negra
                      F#m
Porque negra tengo el alma
                    Bm
Yo por ti perdí la calma
         C#7/G#         F#m
Y casi pierdo hasta mi cama
                      C#7/G#
Cama, cama, come on, baby
                 F#m
Te digo con disimulo
                     Bm
Que tengo la camisa negra
       C#7/G#        F#m
Y debajo tengo el difunto

                 C#7/G#
Tengo la camisa negra
                      F#m
Porque negra tengo el alma
                    Bm
Yo por ti perdí la calma
         C#7/G#         F#m
Y casi pierdo hasta mi cama
                      C#7/G#
Cama, cama, come on, baby
                 F#m
Te digo con disimulo
                     Bm
Que tengo la camisa negra
       C#7/G#        F#m
Y debajo tengo el difunto
00:00 / 00:00
Otros videos de esta canción
Repetir
Otros videos de esta canción
Composición de Juan Esteban Aristizabal
Colaboración y revisión:
  • Victor Alves
  • Luiz Azevedo
  • Lucas Fessel
21.174 vistas
    • ½ Tono
    • Am
    • Bbm
    • Bm
    • Cm
    • C#m
    • Dm
    • Ebm
    • Em
    • Fm
    • F#m
    • Gm
    • G#m
  • Agregar a la lista

    0 comentarios

    Ver todos los comentarios

    ¿Lograste tocar?

    10 Tocaron 2 Aún no

    ¡Graba un video tocando La Camisa Negra y envíanoslo!

    00:00 / 00:00
    OK