Cifra Club

Nada

Juanes

Cifrado: Principal (guitarra y guitarra eléctrica)
tono: E
Intro:

E|-------5-5-5-5-5-5-5-5-5-4-4-4-4-4-4-4-4-------------------|
B|-------5-5-5-5-5-5-5-5-5-5-5-5-5-5-5-5-5-------------------|

E|-------4/5-7/12^^--12--7/5/4-0-----------------------------|

E|-------4/5-7/12^^--16-16h17h16-16h17h16-12-----------------|

E|-------4/5-7/12^^--12--7/5/4-0-----------------------------|

E|-------4/5-7/12^^--12^^------------------------------------|

Versos:
A
Ya no tengo sufrimiento
E
Ya no tengo quien me mienta
A
Ya no tengo a quien contarle
E
Lo que tengo en mi cabeza

A
Ya no siento desconfianza
E
Ya no siento mas violencia
A
ya no siento que mi vida
E
valga menos que tu ausencia

*Coro: Con las mismas notas de los versos y acompañado por este punteo:

Ya no me importa tu destino
Ya solo quiero hallar el mio
Ya no me asombra tu existencia
Ya no me asombra nada, nada.

E|-----5-----5-----5-----4-----4-----4-----------------------|
B|------5-----5-----------5-----5----------------------------|
G|---4-----4-----4-----4-----4-----4-------------------------|

Repetir 4 veces (no estoy muy seguro)

Versos
A
Ya no tengo que explicar
E
Ya no tengo quien me juzgue
A
Ya no tengo a quien pedirle
E
Una opinion sobre mi vida

A
Ya no siento el alma ciega
E
Ya no siento el alma muerta
A
Ya no siento que mi vida
E
Valga menos que tu ausencia.

*Coro: Igual que el primero

Ya no me importa tu destino
Ya solo quiero hallar el mio
Ya no me asombra tu existencia
Ya no me asombra nada, nada.

*Break: Hacerlo con el punteo del coro
A
Para mi ya no existes tiempo
E
Para mi ya no existes
A
Para mi ya no queda nada
E
Para mi ya no queda nada

Interludio

A      E  (2 veces)

E|-------4/5-7/12^^--12--7/5/4-0-----------------------------|

E|-------4/5-7/12^^--16-16h17h16-16h17h16-12-----------------|

*Break: Igual que el anterior pero con los punteos del
        interludio + los del coro y se repite 3 veces.

A
Para mi ya no existes tiempo
E
Para mi ya no existes
A
Para mi ya no queda nada
E
Para mi ya no queda nada


Final:

E|-------5-5-5-5-5-5-5-5-5-4-4-4-4-4-4-4-4-------------------|
B|-------5-5-5-5-5-5-5-5-5-5-5-5-5-5-5-5-5-------------------|
00:00 / 00:00
Otros videos de esta canción
Repetir
Otros videos de esta canción
Composición de Juanes
24 exhibiciones
    • ½ Tono
    • A
    • Bb
    • B
    • C
    • Db
    • D
    • Eb
    • E
    • F
    • F#
    • G
    • Ab
  • Agregar a la lista
    00:00 / 00:00
    OK