Enviar cifraEntrar

Angel

Judas Priest

Acordes: Principal
reproducciones 1.881
Tono: D
Intro 5x: Bm7 Bm7 G A

guitarra clean:


E|-----------------------------------------------------------------------------|
B|------2h3-3-2-3---------------------2h3-5-3----------------------------------|
G|------2--------------0------2-------2------------0-----2---------------------|
D|----3-----------------0----2-2----3---------------0---2-2--------------------|
A|---2---------------2------0------2--------------2----0-----------------------|
E|------------------3----------------------------3-----------------------------|


guitarra solo:


E|-9-10-7---9-10--12--10-9-7-5------7--7------------------------------------------|
B|-----------------------------5/7------------5-7---8---7---5---------------------|
G|--------------------------------------------------------------7--6--4------4----|
D|-----------------------------------------------------------------------7--------|
A|--------------------------------------------------------------------------------|
E|--------------------------------------------------------------------------------|


Verso:
Bm7   G  A             Bm7            G
Angel -  put sad wings around me now
   A                 Bm7                  G      A     Bm7   G  A
Protect me from this world of sin So that we can rise again
   Bm7   G A               Bm7         G
Oh angel - we can find our way somehow
  A               Bm7                 G           A    Bm7   G  A
Escaping from the world we're in to a place where we began

Refrão:
      G          Bm
And I know we'll find a better place and
G        Bm
peace of mind just tell me that it's
G       Em                 F#
all you want - for you and me
F#
Angel won't you set me free

(Intro)

Interlúdio 2x: Bm7 Bm7 G A

(Verso)
Bm7   G   A               Bm7           G
Angel   remember how we'd chase the sun
A                Bm7                   G         A      Bm7  G  A
Then reaching for the stars at night as our lives had just begun

(refrão)
       G        Bm                      G         Bm
When I close my eyes I hear your velvet wings and cry
                      G    Em                  F#
I'm waiting here with open arms - oh can't you see
F#
Angel shine your light on me


     (solo 4x) Bm G A
E|------------------------------------------------------------17----17-15-14---14-15-14----------------------|
B|---14-15-12---14-15-17--15-14----------12-12----14-15-17-15--------------------------14-15-17b19--15--15-|
G|------------------------------14--\11---------------------------------------------------------------16--16-|
D|-----------------------------------------------------------------------------------------------------------|
A|-----------------------------------------------------------------------------------------------------------|
E|-----------------------------------------------------------------------------------------------------------|


E|----------------------------------------------------------------------------------|
B|----------------------------------------------------------------------------------|
G|----------9-11-12-11-------9------------------------------------------------------|
D|-9-11-12---------------------12-11-9----------------------------------------------|
A|----------------------------------------------------------------------------------|
E|----------------------------------------------------------------------------------|


(ponte)
Em             F#
   angel we'll meet once more I'll pray
Bm             G
   When all my sins are washed away

Edim7          F#
   Hold me inside your wings and
Bm Bm/A G
stay
F#                 Bm   G
Angel take me far away

(outro)
A              Bm
Put sad wings around me now
G             A    Bm    G
Angel take me far away
A              Bm
Put sad wings around me now
        G      A    Bm      G
So that we can rise again
A              Bm
Put sad wings around me now
G             A    Bm    G
Angel take me far away
A              Bm
Put sad wings around me now
        G      A     G       A  Bm
So that we can rise again
  • 1
  • 2
  • 3
  • 4
  • 5
  • 6
  • 7
  • 8
  • 9
  • 10
  • 11
  • 12
    Acordes para:

      0 comentarios

        mostrar mas comentarios

        ¿Conseguiste tocar?

        16tocaron0aún no

        ¡Grave un vídeo tocando Angel y envie para nosotros!

        00:00 / 00:00
        outros vídeos desta música
        repetirqualidadeautomática
        • automática
        Outro vídeos desta música
          00:00 / 00:00
          automática
          • automática
          Acordes para:guitarra
          dificuldadreproduccionescontribuciones
          1 versión de Contrabajoreproduccionescontribuciones
          1 versión de Guitar Proformatodownloadscontribución
          cerrarplay/pause subir/bajar velocidad
            acordes
            cerrar
            OK
            Feedback