Cifra Club

Death Row

Judas Priest

Cifrado: Principal (guitarra y guitarra eléctrica)
tono: C
D |-------|-------|-------|-------|-------|-------|-------|-------|
A |-------|-------|-------|-------|-------|-------|-------|-------|
F |-------|-------|-------|-------|-------|-------|-------|-------|
C |-------|-------|-------|-------|-------|-------|-------|-------|
G |-------|-------|-------|-------|-------|-------|-------|-------|
D |-------|-------|-------|-------|-------|-------|-------|-------|

  E  S S S S E  S S S S S S S S    E  S S S S E  S S S S Q
--------------------------------|-----------------------------|
--------------------------------|-----------------------------|
--2----------2------------------|--2---------------------5----|
--2----------2------------------|--2----------3----------5----|
--0--0-0-0-0-0--0-0-0-0-0-0-0-0-|--0--0-0-0-0-1--0-0-0-0-3----|
--------------------------------|-----------------------------|

  E  S S S S E  S S S S S S S S    E  S S S S E  S S S S Q
--------------------------------|-----------------------------|
--------------------------------|-----------------------------|
--3----------2------------------|--2---------------------5----|
--3----------2------------------|--2----------3----------5----|
--1--0-0-0-0-0--0-0-0-0-0-0-0-0-|--0--0-0-0-0-1--0-0-0-0-3----|
--------------------------------|-----------------------------|

  E  S S S S E  S S S S S S S S    E  S S S S E  S S S S Q
--------------------------------|-----------------------------|
--------------------------------|-----------------------------|
--3----------2------------------|--2---------------------5----|
--3----------2------------------|--2----------3----------5----|
--1--0-0-0-0-0--0-0-0-0-0-0-0-0-|--0--0-0-0-0-1--0-0-0-0-3----|
--------------------------------|-----------------------------|

  E  S S S S E  S S S S S S S S    E  S S S S E  S S S S Q
--------------------------------|-----------------------------|
--------------------------------|-----------------------------|
--3----------2------------------|--2---------------------5----|
--3----------2------------------|--2----------3----------5----|
--1--0-0-0-0-0--0-0-0-0-0-0-0-0-|--0--0-0-0-0-1--0-0-0-0-3----|
--------------------------------|-----------------------------|

  E  E  E  E  S S S S S S S S    E  E  E  E  S S S S S S S S
------------------------------|------------------------------|
------------------------------|------------------------------|
------------------------------|------------------------------|
------------------------------|------------------------------|
--7-----5---------------------|--7-----5---------------------|
--5--0--3--0--2-3-2-0-2-3-2-0-|--5--0--3--0--2-3-2-0-2-3-2-0-|

  E  E  E  E  S S S S S S S S    E  E  E  E  S S S S S S S S
------------------------------|------------------------------|
------------------------------|------------------------------|
------------------------------|------------------------------|
------------------------------|------------------------------|
--7-----5---------------------|--7-----5---------------------|
--5--0--3--0--2-3-2-0-2-3-2-0-|--5--0--3--0--2-3-2-0-2-3-2-0-|

  E  S S S S E  S S S S S S S S    E  S S S S E  S S S S Q
--------------------------------|-----------------------------|
--------------------------------|-----------------------------|
--2----------2------------------|--2---------------------5----|
--2----------2------------------|--2----------3----------5----|
--0--0-0-0-0-0--0-0-0-0-0-0-0-0-|--0--0-0-0-0-1--0-0-0-0-3----|
--------------------------------|-----------------------------|

  E  S S S S E  S S S S S S S S    E  S S S S E  S S S S Q
--------------------------------|-----------------------------|
--------------------------------|-----------------------------|
--3----------2------------------|--2---------------------5----|
--3----------2------------------|--2----------3----------5----|
--1--0-0-0-0-0--0-0-0-0-0-0-0-0-|--0--0-0-0-0-1--0-0-0-0-3----|
--------------------------------|-----------------------------|

  E  S S S S E  S S S S S S S S    E  S S S S E  S S S S Q
--------------------------------|-----------------------------|
--------------------------------|-----------------------------|
--3----------2------------------|--2---------------------5----|
--3----------2------------------|--2----------3----------5----|
--1--0-0-0-0-0--0-0-0-0-0-0-0-0-|--0--0-0-0-0-1--0-0-0-0-3----|
--------------------------------|-----------------------------|

  E  S S S S E  S S S S S S S S    E  S S S S E  S S S S Q
--------------------------------|-----------------------------|
--------------------------------|-----------------------------|
--3----------2------------------|--2---------------------5----|
--3----------2------------------|--2----------3----------5----|
--1--0-0-0-0-0--0-0-0-0-0-0-0-0-|--0--0-0-0-0-1--0-0-0-0-3----|
--------------------------------|-----------------------------|

  E  E  E  E  S S S S S S S S    E  E  E  E  S S S S S S S S
------------------------------|------------------------------|
------------------------------|------------------------------|
------------------------------|------------------------------|
------------------------------|------------------------------|
--7-----5---------------------|--7-----5---------------------|
--5--0--3--0--2-3-2-0-2-3-2-0-|--5--0--3--0--2-3-2-0-2-3-2-0-|

  E  E  E  E  S S S S S S S S    E  E  E  E  S S S S S S S S
------------------------------|------------------------------|
------------------------------|------------------------------|
------------------------------|------------------------------|
------------------------------|------------------------------|
--7-----5---------------------|--7-----5---------------------|
--5--0--3--0--2-3-2-0-2-3-2-0-|--5--0--3--0--2-3-2-0-2-3-2-0-|

     PM PM PM PM    PM PM PM PM    PM PM       PM PM PM PM    PM PM PM PM
  E  S  S  S  S  E  S  S  S  S  E  S  S     E  S  S  S  S  E  S  S  S  S  Q
-----------------------------------------|-------------------------------------|
-----------------------------------------|-------------------------------------|
--2--------------2--------------2--------|--2--------------2--------------3----|
--2--------------2--------------2--------|--2--------------2--------------3----|
--0--0--0--0--0--0--0--0--0--0--0--0--0--|--0--0--0--0--0--0--0--0--0--0--1----|
-----------------------------------------|-------------------------------------|

     PM PM PM PM    PM PM PM PM PM PM PM
  E  S  S  S  S  E  S  S  S  S  E  S  S     Q    Q    Q    Q
-----------------------------------------|----------------------|
-----------------------------------------|----------------------|
--2--------------2--------------2--------|----------------------|
--2--------------2--------------2--------|--3---------5----3----|
--0--0--0--0--0--0--0--0--0--0--0--0--0--|--1----5----3----1----|
-----------------------------------------|-------3--------------|

     PM PM PM PM    PM PM PM PM    PM PM       PM PM PM PM    PM PM PM PM
  E  S  S  S  S  E  S  S  S  S  E  S  S     E  S  S  S  S  E  S  S  S  S  Q
-----------------------------------------|-------------------------------------|
-----------------------------------------|-------------------------------------|
--2--------------2--------------2--------|--2--------------2--------------3----|
--2--------------2--------------2--------|--2--------------2--------------3----|
--0--0--0--0--0--0--0--0--0--0--0--0--0--|--0--0--0--0--0--0--0--0--0--0--1----|
-----------------------------------------|-------------------------------------|

     PM PM PM PM    PM PM PM PM PM PM PM
  E  S  S  S  S  E  S  S  S  S  E  S  S     Q    Q    Q    Q
-----------------------------------------|----------------------|
-----------------------------------------|----------------------|
--2--------------2--------------2--------|----------------------|
--2--------------2--------------2--------|--3---------5----3----|
--0--0--0--0--0--0--0--0--0--0--0--0--0--|--1----5----3----1----|
-----------------------------------------|-------3--------------|

  E  E  E  E  S S S S S S S S    E  E  E  E  S S S S S S S S
------------------------------|------------------------------|
------------------------------|------------------------------|
------------------------------|------------------------------|
------------------------------|------------------------------|
--7-----5---------------------|--7-----5---------------------|
--5--0--3--0--2-3-2-0-2-3-2-0-|--5--0--3--0--2-3-2-0-2-3-2-0-|

  E  E  E  E  S S S S S S S S    E  E  E  E  S S S S S S S S
------------------------------|------------------------------|
------------------------------|------------------------------|
------------------------------|------------------------------|
------------------------------|------------------------------|
--7-----5---------------------|--7-----5---------------------|
--5--0--3--0--2-3-2-0-2-3-2-0-|--5--0--3--0--2-3-2-0-2-3-2-0-|

  E  E  H.
---------------------|---------------||
---------------------|---------------||
---------------------|---------------||
--2--2---------------|---------------||
--2--2---------------|---------------||
--0--0---------------|---------------||

W - whole
H - half
Q - quarter
E |- 8th
S - 16th
T - 32nd
X - 64th
. - note dotted
|-n-|  - n-tuplets

L - tied note
x - dead note
G |- grace note
(n) - ghost note
> - accentuded note
NH - natural harmonic
AH - artificial harmonic
TH - tapped harmonic
SH - semi harmonic
PH - pitch harmonic
h - hammer on
p - pull off
B |- bend
br - bendRelease
pb - preBend
pbr - preBendRelease
brb - bendReleaseBend
\n/ - tremolo bar dip
\n - tremolo bar dive
-/n - tremolo bar Release up
/n\ - tremolo bar inverted dip
/n - tremolo bar return
-\n - tremolo bar Release down
S - shift slide
s - legato slide
/ -  slide into from below or out of upwards
\ -  slide into from above or out of downwards
~ - vibrato
W - wide vibrato
tr - trill
TP - tremolo picking
T - tapping
S - slap
P - pop
< - fade in
^ - brush up
v - brush down
00:00 / 00:00
Otros videos de esta canción
Repetir
Otros videos de esta canción
Composición de Glenn Tipton / K.K. Downing
25 exhibiciones
    • ½ Tono
    • A
    • Bb
    • B
    • C
    • Db
    • D
    • Eb
    • E
    • F
    • F#
    • G
    • Ab
  • Agregar a la lista
    00:00 / 00:00
    OK