Cifra Club

Arrepentida

Julio Jaramillo

Cifrado: Principal (guitarra y guitarra eléctrica)
tono: Am
   G7      Am
E|--7-5-7-5-8--5---|
B|--6-6-6-6-6----5-|
G|-----------------|
D|-----------------|
A|-----------------|
E|-----------------|

   D7        G7
E|--7-6-7--7/10--10-12--10--8--|
B|--9-7-9--9/12--12-12--12-10--|
G|-----------------------------|
D|-----------------------------|
A|-----------------------------|
E|-----------------------------|

   G7               Am
E|--7---5---7---5----8--5---|
B|---6---6---6---6--------5-|
G|----7---7---7---7---------|
D|--------------------------|
A|--------------------------|
E|--------------------------|

   D7                G7       E
E|--------------7-7-7-10-12--8-7--|
B|--------9-9-9-------12-12-10-9--|
G|--9-9-9-------------------------|
D|--------------------------------|
A|--------------------------------|
E|--------------------------------|
00:00 / 00:00
Otros videos de esta canción
Repetir
Otros videos de esta canción
Composición de Julio Villafuerte
21 vistas
    • ½ Tono
    • Am
    • Bbm
    • Bm
    • Cm
    • C#m
    • Dm
    • Ebm
    • Em
    • Fm
    • F#m
    • Gm
    • G#m
  • Agregar a la lista

    0 comentarios

    Ver todos los comentarios

    ¿Lograste tocar?

    0 Tocaron 0 Aún no

    ¡Graba un video tocando Arrepentida y envíanoslo!

    00:00 / 00:00
    OK