Cifra Club

Aunque me duela el alma

Julio Jaramillo

Cifrado: Principal (guitarra y guitarra eléctrica)
tono: Am

 E7                                        Am 
E|-15-12-15-12-15-12-------------------12--------|
B|-------------------15-15-14-15-14-15----15-13--|
G|-----------------------------------------------|
                      E7                        Am 
E|-12-14/15-12-14/15-12-12------------------12---------|
B|------------------------15-15-14-15-14-15----15-13---|
G|-----------------------------------------------------|
piano.... lam A7  rem G7   CM 
            E7                    Am 
E|----------------7---10-----------------8---12----|
B|------------9-----9---------------10-----9-------|
G|-9-8-9-10-9---9--------9-8-9-10-9----9-----------|
                 E7                                  Am 
E|-12-11-12-13-12------------------------------------------------12-17-|
B|----------------15-13-12-13-15-13-12----------12-------------13------|
G|-------------------------------------14-13-14----13-14-13-14---------|

Am                  E7 
 Aunque me duela el alma
                Am 
 tengo que confesarte
                 E7 
 que todo ha terminado
               A 
 y tengo que dejarte

                 Dm 
 y ha llegar el momento del adios,
G7             C 
 hagamos un convenio entre los dos
                  E7 
 sigamos siendo amigos
                    Am 
 sin hablar mas de amor(bis)

Am                  E7 
 aunque me duela el alma
                   Am 
 y yo, y yo te necesite
                    E7 
 aunque me duela el alma
                        Am 
 y yo, y yo mi amor te grite


               Dm 
 hagamos un convenio entre los dos
G7             C 
 repartamos la pena de este amor
               E7 
 y asi ya como amigos jamas,
                 Am 
 jamas hablar de amor(bis)
00:00 / 00:00
Otros videos de esta canción
Repetir
Otros videos de esta canción
Composición de Daniel Santos
92 vistas
    • ½ Tono
    • Am
    • Bbm
    • Bm
    • Cm
    • C#m
    • Dm
    • Ebm
    • Em
    • Fm
    • F#m
    • Gm
    • G#m
  • Agregar a la lista

    0 comentarios

    Ver todos los comentarios

    ¿Lograste tocar?

    0 Tocaron 0 Aún no

    ¡Graba un video tocando Aunque me duela el alma y envíanoslo!

    00:00 / 00:00
    OK