Cifra Club

Un disco más

Julio Jaramillo

Cifrado: Principal (guitarra y guitarra eléctrica)
tono: Am

E|--10---10-10-10-10-10-------10--------8-------8-7-8-7-8-7-10-8-7-------|
B|---------------------10---10--10----10-10--10------------------10-9----|
G|------------------------10-------10------9-----------------------------|
D|-----------------------------------------------------------------------|
A|-----------------------------------------------------------------------|
E|-----------------------------------------------------------------------|

E|--7--10--9---10---8/10/8------|
B|--9--12--11--12---10----------|
G|------------------------------|
D|------------------------------|
A|------------------------------|
E|------------------------------|

E|--10---10-10-10-10-10-------10--------8-------8-7-8-7-8-7-10-8-7-------|
B|---------------------10---10--10----10-10--10------------------10-9----|
G|------------------------10-------10------9-----------------------------|
D|-----------------------------------------------------------------------|
A|-----------------------------------------------------------------------|
E|-----------------------------------------------------------------------|

E|---------------------------------10-|
B|----------9-9-----------------10----|
3 10-9-7------10-9-7----------10------
D|-------10----------10-7-------------|
A|------------------------------------|
E|------------------------------------|
00:00 / 00:00
Otros videos de esta canción
Repetir
Otros videos de esta canción
Composición de Leonardo Gonzales
8 vistas
    • ½ Tono
    • Am
    • Bbm
    • Bm
    • Cm
    • C#m
    • Dm
    • Ebm
    • Em
    • Fm
    • F#m
    • Gm
    • G#m
  • Agregar a la lista

    0 comentarios

    Ver todos los comentarios

    ¿Lograste tocar?

    0 Tocaron 0 Aún no

    ¡Graba un video tocando Un disco más y envíanoslo!

    00:00 / 00:00
    OK