Cifra Club

Soy un altar

Julio Melgar

Cifrado: Principal (guitarra y guitarra eléctrica)
tono: D
E|----------------------------------------------------------------------|
B|----------------------------------------------------------------------|
G|-----------------------------0-----12------12-12-11-9-11-12-12s-16-14a|
D|-----------------------------0----------------------------------------|
A|----------------------------------------------------------------------|
E|----------------------------------------------------------------------|

E|----------------------------------------------------------------------|
B|----------------------------------------------------------------------|
G|---------s14-14-12-11-12-14-11-12-------s12-12-11-9-11-12-11-9-14v-12v|
D|----------------------------------------------------------------------|
A|----------------------------------------------------------------------|
E|----------------------------------------------------------------------|

E|----------------------------------------------------------------------|
B|-----------13-12------------------------------------------------------|
G|---------12-------12-12-11-9-11-12-12s-16-14a--14-14-12-11-12-14-11-14v|
D|-12sb---s12-----------------------------------------------------------|
A|----------------------------------------------------------------------|
E|----------------------------------------------------------------------|

E|--------------------------------------------12--14--15--14--14v-------|
B|------------------------------------------12--12--12--12--13----------|
G|-14-12-14v-14v-12-----------------------------------------------------|
D|------------------12a--------14-12----12a-----------------------------|
A|-----------------------12-14-------14---------------------------------|
E|----------------------------------------------------------------------|

E|-14-12-----------------------------------12-14-s-17vt.|
B|------14-12------------------------12-14-----------|
G|------------14-12------------12-14-----------------|
D|------------------14-12-12-14----------------------|
A|---------------------------------------------------|
E|---------------------------------------------------|

legenda:
v: Vent
s: Slide
vt: Vibrato
Compositor não encontrado.
41 vistas
    • ½ Tono
    • A
    • Bb
    • B
    • C
    • Db
    • D
    • Eb
    • E
    • F
    • F#
    • G
    • Ab
  • Agregar a la lista

    0 comentarios

    Ver todos los comentarios

    ¿Lograste tocar?

    0 Tocaron 0 Aún no

    ¡Graba un video tocando Soy un altar y envíanoslo!

    00:00 / 00:00
    Outros vídeos desta música
    Repetir Calidad Automático
    Outros vídeos desta música
    00:00 / 00:00
    Automático
    OK