Cifra Club

Te quiero alabar

Julio Melgar

Cifrado: Principal (guitarra y guitarra eléctrica)
Selo Cifra Club: esta cifra foi revisada para atender aos critérios oficiais da nossa Equipe de Qualidade.
tono: Em
     Em   D        C
E|------------------------------------------------------------|
B|----------10^-----------10------------10--------------------|
G|-------------9-11-12-11---12-11-9--9-----12-11-9--------12-9|
D|-9-9--7-7------------------------12--------------12-9-------|
A|-7-7--5-5---------------------------------------------12----|
E|------------------------------------------------------------|

E|--------------------15-12-12^-------------------------------|
B|------17-15-13-15-13----------10----------10----------------|
G|-14-16---------------------------11-12-11---11-9------------|
D|------------------------------------------------------------|
A|------------------------------------------------------------|
E|------------------------------------------------------------|

ESTA ES A  SEGUNDA PARTE AQUÍ YA CAMBIA A S NOTAS////B C D////
E|---------------------------------------------------------------|
B|-------------------------------------------------12--10-8-12-8-|
G|-11-12-9--11---------------------------9---11-12---------------|
D|-------------12--12-11-12--12-11-12-11-------------------------|
A|---------------------------------------------------------------|
E|---------------------------------------------------------------|

ESTE PEDAZO VA MUY RAPIC  OK
E|----------------------------------------10-12^--10--------------------|
B|----------------------------------10-12------------12-10--------------|
G|-12-11-9------------------9-11-12-----------------------12-11-9-------|
D|---------12-10-9--9-10-12--------------------------------------12-10-9|
A|----------------------------------------------------------------------|
E|----------------------------------------------------------------------|

E|--------------------10-12----10-15-15---15-12--12-10---10-|
B|--------------10-12-------12-----------------12-----12----|
G|-------9-11-12--------------------------------------------|
D|-10-12----------------------------------------------------|
A|----------------------------------------------------------|
E|----------------------------------------------------------|

E|-12^---10-------------------------------------22^-|
B|--------------12-10-------------------------------|
G|-----------------------12-11-9--------------------|
D|----------------------------------12-10-9---------|
A|--------------------------------------------------|
E|--------------------------------------------------|
Bendiciones!!!
Cualquier duda o mejora para este solo favor indicarme ya que soy humano.
Otros videos de esta canción
    45 exhibiciones
      • ½ Tono
      • Am
      • Bbm
      • Bm
      • Cm
      • C#m
      • Dm
      • Ebm
      • Em
      • Fm
      • F#m
      • Gm
      • G#m
    • Agregar a la lista

    Afinación de cifrado

    Afinador online

      OK