Cifra Club

Jovem

Julio Secchin

Cifrado: Principal (guitarra y guitarra eléctrica)
tono: Eb
[Intro] Eb  Eb/G  Cm7  E7(9)
        Ab7M  Ab7M/G  Fm7  Bb7

E|-------6----------6---8-10-8-6---------------|
B|-8-8-8-----8-8-8----8-----------8------------|
G|---------------------------------------------|
D|---------------------------------------------|
A|---------------------------------------------|
E|---------------------------------------------|

E|---------------------------------------------|
B|-8-8-8-6---6-8-------------6-8-6-------------|
G|---------8------5-5-5-8-5--------8-5---------|
D|--------------------------------------8------|
A|---------------------------------------------|
E|---------------------------------------------|

[Primeira Parte]

 Eb    Eb/G           Cm7    
Jovem,      me faltou ar
           Eb7(9)
Mas quero bis
          Ab7M  Ab7M/G     
Me sinto jovem       
         Fm7        Bb7
Só de fazer você feliz 

Eb    Eb/G                 Cm7 
Finge,     que a Pedra da Gávea 
         Eb7(9)
É um vulcão
     Ab7M   Ab7M/G      
Erupçando        
           Fm7   Bb7    Eb  Bb7
Sobre o pecado e o  Leblon

[Refrão]

        Eb         
Eu vacilei na primeira 
 Bb/D       Cm7  Cm7/Bb
Regra do rolê 
           Ab7M
Fiquei doidão
Bb7               Eb  Bb7
    Liguei pra você
Eb              Bb/D      Cm7  Cm7/Bb
   Mas quem um dia irá dizer
              Ab7M  
Que o nosso amor      
Bb7                  Eb  Bb7
    Precisa se esconder

[Solo] Eb  Eb/G  Cm7  E7(9)
       Ab7M  Ab7M/G  Fm7  Bb7

E|-------6----------6---8-10-8-6---------------|
B|-8-8-8-----8-8-8----8-----------8------------|
G|---------------------------------------------|
D|---------------------------------------------|
A|---------------------------------------------|
E|---------------------------------------------|

E|---------------------------------------------|
B|-8-8-8-6---6-8-------------6-8-6-------------|
G|---------8------5-5-5-8-5--------8-5---------|
D|--------------------------------------8------|
A|---------------------------------------------|
E|---------------------------------------------|

[Primeira Parte]

 Eb    Eb/G           Cm7    
Jovem,      me faltou ar
           Eb7(9)
Mas quero bis
          Ab7M  Ab7M/G     
Me sinto jovem       
         Fm7        Bb7
Só de fazer você feliz 

Eb    Eb/G                 Cm7 
Finge,     que a Pedra da Gávea 
         Eb7(9)
É um vulcão
     Ab7M   Ab7M/G      
Erupçando        
           Fm7   Bb7    Eb  Bb7
Sobre o pecado e o  Leblon

[Refrão]

        Eb         
Eu vacilei na primeira 
 Bb/D       Cm7  Cm7/Bb
Regra do rolê 
           Ab7M
Fiquei doidão
Bb7               Eb  Bb7
    Liguei pra você
Eb              Bb/D      Cm7  Cm7/Bb
   Mas quem um dia irá dizer
              Ab7M  
Que o nosso amor      
Bb7                  Eb  Cm7
    Precisa se esconder
              Ab7M  
Que o nosso amor      
Bb7                  Eb  Bb7  Eb
    Precisa se esconder
Composición de Julio Secchin
Colaboración y revisión:
1.172 vistas
    • ½ Tono
    • A
    • Bb
    • B
    • C
    • Db
    • D
    • Eb
    • E
    • F
    • F#
    • G
    • Ab
  • Agregar a la lista

    0 comentarios

    Ver todos los comentarios

    ¿Lograste tocar?

    14 Tocaron 8 Aún no

    ¡Graba un video tocando Jovem y envíanoslo!

    00:00 / 00:00
    Outros vídeos desta música
    Repetir Calidad Automático
    Outros vídeos desta música
    00:00 / 00:00
    Automático
    OK