Cifra Club

El amor de su vida

Julión y Su Norteño Banda

Cifrado: Principal (guitarra y guitarra eléctrica)
tono: G
        G                     C                   D     C              G   D
E|-----------------4-4----------------------4-4-4-3-3-3-------------------|
B|-4p2-----2/4-4-4------4-4h6-2---4/6-6-6-6-------------6-6-6-4--------4--|
G|-----5---------------------------------------------------------6-5-6----|
D|------------------------------------------------------------------------| (x2)
A|------------------------------------------------------------------------|
E|------------------------------------------------------------------------|


  G
Puede que te digan tus amigas
                        Em
que muy mal la estoy pasando
                                            C
desde aquella tu partida,que me la paso llorando
                          Am
y que no salgo ni a la esquina
                      D
por temor a no encontrarte, que mi vida es un fracaso.

   G
Puede que te digan
                                 Em
que he guardado todas tus fotografias,
                                                   C
que me aferro como un loco en esperanza que algun dia
                    Am
te despiertes recordando
                     D
que a pesar de mis errores tuvimos hermosos días.


 C
Tambien es probable que te cuenten
                    G
entre cuento los lugares donde me abrazabas fuerte,
                    Am                          C
Que no soy nada discreto cuando alguien te menciona,
                   D
no se quedarme callado y le digo a esa persona.


 G                        C
Yo, yo era el amor de su vida
                   D                  C
Yo disfrute sus caricias y su primer beso
               G  D
Fue mio y fue mia

 G                          C
Yo, yo entre sus brazos dormia
                    D
Yo le arrancaba sonrisas
                C                  G
mientras le cantaba canciones bonitas

 Am                   G                        Am
Yo, no supe lo que tenia, me acostumbre a la rutina
             D                 G   D
Y la hice llorar, ese maldito día.


        G                     C                   D     C              G   D
E|-----------------4-4----------------------4-4-4-3-3-3-------------------|
B|-4p2-----2/4-4-4------4-4h6-2---4/6-6-6-6-------------6-6-6-4--------4--|
G|-----5---------------------------------------------------------6-5-6----|
D|------------------------------------------------------------------------|
A|------------------------------------------------------------------------|
E|------------------------------------------------------------------------|

 C
Tambien es probable que te cuenten
                    G
entre cuento los lugares donde me abrazabas fuerte,
                    Am                          C
Que no soy nada discreto cuando alguien te menciona,
                   D
no se quedarme callado y le digo a esa persona.


 G                        C
Yo, yo era el amor de su vida
                   D                  C
Yo disfrute sus caricias y su primer beso
               G  D
Fue mio y fue mia

 G                          C
Yo, yo entre sus brazos dormia
                    D
Yo le arrancaba sonrisas
                C                  G
mientras le cantaba canciones bonitas

 Am                   G                        Am
Yo, no supe lo que tenia, me acostumbre a la rutina
             D                 G   D
Y la hice llorar, ese maldito día.
Composición de Julion Alvarez
14 vistas
    • ½ Tono
    • A
    • Bb
    • B
    • C
    • Db
    • D
    • Eb
    • E
    • F
    • F#
    • G
    • Ab
  • Agregar a la lista

    0 comentarios

    Ver todos los comentarios

    ¿Lograste tocar?

    0 Tocaron 0 Aún no

    ¡Graba un video tocando El amor de su vida y envíanoslo!

    00:00 / 00:00
    Otros videos de esta canción
    Repetir Calidad Automático
    Otros videos de esta canción
    00:00 / 00:00
    Automático
    OK