Cifra Club

Meteor Flower Intro

July for Kings

Cifrado: Principal (guitarra y guitarra eléctrica)
Selo Cifra Club: esta cifra foi revisada para atender aos critérios oficiais da nossa Equipe de Qualidade.
tono: Eb (con acordes en la forma de D) Capotraste en 1ª casa
Tuning:Drop D w/capo 1




Meteor flower you settled in my life, shine among the cut-out stars and fireflies...
e|---0-----0--------- 0----------------------0------0---------0----------------|
B|-----0-----0----------0----------------------0------0---------0--------------|
G|-----------------------------------------------------------------------------|
D|----------------------------2p0----------0-------------------------2--/4--7--|
A|-------4-----0h4--2-----2h4-----4h5p4p0--0------4-----0h4--2----/4-----------|
D|-0---------------------------------------0-----------------------------------|

e|---0-----0--------- 0----------------------0------0---------0---------0------|
B|-----0-----0----------0----------------------0------0---------0-------0------|
G|-----------------------------------------------------------------------------|
D|----------------------------2p0----------0-----------------------------------|
A|-------4-----0h4--2-----2h4-----4h5p4p0--0------4-----0h4--2----2---2--------|
D|-0---------------------------------------0------------------------2----------|

I think I want to fly away with you but for now I'm afraid...
e|--3-----2-----0-----0-----|
B|--3-----3-----3-----2-----|
G|--2-----2-----2-----2-----|
D|--0-----0-----2-----2-----|
A|--0-----0-----0-----0-----|
D|--0-----0-----------------|

Write our names across the galaxy, meteor flower...
e|--0---0---0-----------|
B|--3---0---0-----------|
G|--2---6---4-----------|
D|--0---4---2-----------|
A|--0---4---2-----------|
D|--0---4---2-----------|
Otros videos de esta canción
218 exhibiciones
    • ½ Tono
    • A
    • Bb
    • B
    • C
    • Db
    • D
    • Eb
    • E
    • F
    • F#
    • G
    • Ab
  • Agregar a la lista

Afinación de cifrado

Afinador online

    OK