Cifra Club

Fotografia

Jumbo

Cifrado: Principal (guitarra y guitarra eléctrica)
Selo Cifra Club: esta cifra foi revisada para atender aos critérios oficiais da nossa Equipe de Qualidade.
tono: E
Intro          Verso        Pre-coro
Guitarra 1
**********
E|------------|-------|----|----------|---------|--|--|-----|
B|------------|-------|----|----------|---------|--|--|-----|
G|-14-18-11-9-| °------|---°|°---------|--------°|--|--|-----|
D|------------|-------|----|----------|---------|--|--|-----|
A|------------| °------|---°|°---------|--------°|--|--|-----|
E|------------|-------|----|----------|---------|--|--|-----|
|Guitarra 2   Rasgueado...                      Rasgueado...
E|------------|--0----| 0---|--4-4-----|4-4------|5-|7-|7----|
B|------------|--0----| 2---|--5---4---|4---4----|5-|7-|7----|
G|------------| °-1----|2--°|°-6-----6-|4-----4-°|6-|8-|8----|
D|------------|--2----| 2---|--6-------|6--------|7-|9-|9----|
A|------------| °-2----|0--°|°-4-------|6-------°|7-|9-|9----|
E|------------|--0----|----|----------| 4--------|5-|7-|7----|
                Mi vida...   Y cuando......     Cuando soy mas debil...


********Es la parte de la entrada que toca el teclado
Coro
E|----------------------|----------------------|----------------------|
B|----------------------|----------------------|----------------------|
|9-9-9-9-9-9-9-9-9-9-9-|----------------------|9-9-9-9-9-9-9-9-9-9-9-|
|9-9-9-9-9-9-9-9-9-9-9-|7-7-7-7-7-7-7-7-7-7-7-|9-9-9-9-9-9-9-9-9-9-9-|
|7-7-7-7-7-7-7-7-7-7-7-|7-7-7-7-7-7-7-7-7-7-7-|7-7-7-7-7-7-7-7-7-7-7-|
|0-0-0-0-0-0-0-0-0-0-0-|5-5-5-5-5-5-5-5-5-5-5-|0-0-0-0-0-0-0-0-0-0-0-|
|
E|----------------------|----------------------|----------------------|
B|----------------------|----------------------|----------------------|
|9-9-9-9-9-9-9-9-9-9-9-|----------------------|9-9-9-9-9-9-9-9-9-9-9-|
|9-9-9-9-9-9-9-9-9-9-9-|7-7-7-7-7-7-7-7-7-7-7-|9-9-9-9-9-9-9-9-9-9-9-|
|7-7-7-7-7-7-7-7-7-7-7-|7-7-7-7-7-7-7-7-7-7-7-|7-7-7-7-7-7-7-7-7-7-7-|
|0-0-0-0-0-0-0-0-0-0-0-|5-5-5-5-5-5-5-5-5-5-5-|0-0-0-0-0-0-0-0-0-0-0-|
 Asi.....

                        Inicia el verso2
E|----------------------|-------------|----|--|----|
B|----------------------|-------------|----|--|----|
G|----------------------|-------------|----|--|----|
|7-7-7-7-7-7-7-7-7-7-7-|2------------|----|--|----|
|7-7-7-7-7-7-7-7-7-7-7-|2--Se sostiene----|--|----|
|5-5-5-5-5-5-5-5-5-5-5-|0------------|----|--|----|
|                       Rasgueado..................
E|----------------------| 0------------|0---|0-|0---|
B|----------------------| 0------------|2---|0-|2---|
G|----------------------| 1------------|2---|1-|2---|
|7-7-7-7-7-7-7-7-7-7-7-|2------------|2---|2-|2---|
|7-7-7-7-7-7-7-7-7-7-7-|2------------|0---|2-|0---|
|5-5-5-5-5-5-5-5-5-5-5-|0------------|----|0-|----|
                        El trafico...

Regresa a el verso, toca otravez el coro y pasa al solo 1.

4/4...................................................................

E|----------------|----------------|----------------|-----------------|
B|----------------|----------------|----------------|-----------------|
|9-9-9-1111119-9-|9-11111114141413|13131111119-9-9-|9-9-9-1111111313-|
D|----------------|----------------|----------------|-----------------|
|7-7-7-9-9-9-7-7-|7-9-9-9-12121211|11119-9-9-7-7-7-|7-7-7-9-9-9-1111-|
E|----------------|----------------|----------------|-----------------|

E|----------------|----------------|----------------|-----------------|
B|----------------|----------------|----------------|-----------------|
|9-9-9-------9-9-|9-------9-9-9---|----9-9-9-------|9-9-9-------9-9--|
|9-9-9-7-7-7-9-9-|9-7-7-7-9-9-9-7-|7-7-9-9-9-7-7-7-|9-9-9-7-7-7-9-9--|
|7-7-7-7-7-7-7-7-|7-7-7-7-7-7-7-7-|7-7-7-7-7-7-7-7-|7-7-7-7-7-7-7-7--|
|0-0-0-5-5-5-0-0-|0-5-5-5-0-0-0-5-|5-5-0-0-0-5-5-5-|0-0-0-5-5-5-0-0--|

                                    Verso 3
4/4.................................3/4...............................
E|-----------------|----------------|----------------|----------------|
B|-----------------|----------------|----------------|----------------|
|13141414-16161616|1616181818212121|21--------------|----------------|
D|-----------------|----------------|----S| e sostiene por 3 barras-----|
|11121212-14141414|1414161616191919|19--------------|----------------|
E|-----------------|----------------|----------------|----------------|
|                                   Rasgueado.........................
E|-----------------|----------------| 0---------------|0---------------|
B|-----------------|----------------| 0---------------|2---------------|
|9-------9-9-9----|----9-9-9-------|1---------------|2---------------|
|9-7-7-7-9-9-9-7--|7-7-9-9-9-7-7-7-|2---------------|2---------------|
|7-7-7-7-7-7-7-7--|7-7-7-7-7-7-7-7-|2---------------|0---------------|
|0-5-5-5-0-0-0-5--|5-5-0-0-0-5-5-5-|0---------------|----------------|
                                    El curso...
Se toca el verso 3 y en el precoro se toca el B por una barra mas,
se toca dos veces el coro y pasa al solo 2.

 Solo 2
4/4
E|----------------|----------------|----------------|------------------|
B|----------------|----------------|----------------|------------------|
|9-9-9-1111119-9-|9-11111114141413|13131111119-9-9-|9-9-9-11111113-13-|
D|----------------|----------------|----------------|------------------|
|7-7-7-9-9-9-7-7-|7-9-9-9-12121211|11119-9-9-7-7-7-|7-7-7-9-9-9-11-11-|
E|----------------|----------------|----------------|------------------|
|
E|----------------|----------------|----------------|------------------|
B|----------------|----------------|----------------|------------------|
|9-9-9-------9-9-|9-------9-9-9---|----9-9-9-------|9-9-9-------9-9---|
|9-9-9-7-7-7-9-9-|9-7-7-7-9-9-9-7-|7-7-9-9-9-7-7-7-|9-9-9-7-7-7-9-9---|
|7-7-7-7-7-7-7-7-|7-7-7-7-7-7-7-7-|7-7-7-7-7-7-7-7-|7-7-7-7-7-7-7-7---|
|0-0-0-5-5-5-0-0-|0-5-5-5-0-0-0-5-|5-5-0-0-0-5-5-5-|0-0-0-5-5-5-0-0---|
 Oh____________________________ asi___...

E|----------------|----------------|----------------|----------------|
B|----------------|----------------|----------------|----------------|
|13-141414-161616|1616181818212121|21--------------|----------------|
D|----------------|----------------|----S| e sostiene por 3 barras-----|
|11-121212-141414|1414161616191919|19--------------|----------------|
E|----------------|----------------|----------------|----------------|
|
E|----------------|----------------|----------------|----------------|
B|----------------|----------------|----------------|----------------|
|9-------9-9-9---|----9-9-9-------|-----Se sostiene hasta el final--|
|9-7-7-7-9-9-9-7-|7-7-9-9-9-7-7-7-|2---------------|----------------|
|7-7-7-7-7-7-7-7-|7-7-7-7-7-7-7-7-|2---------------|----------------|
|0-5-5-5-0-0-0-5-|5-5-0-0-0-5-5-5-|0---------------|----------------|

E|----------------|----------------|----------------|----------------|
B|----------------|----------------|----------------|----------------|
G|----------------| 16*-------------|----------------|----------------|
D|----------------|-----S| e sostiene hasta el final--|----------------|
A|----------------|----------------|----------------|----------------|
E|----------------|----------------|----------------|----------------|
|                 *se obtiene por la retroalimentacion.
E|----------------|----------------|----------------|----------------|
B|----------------|----------------|----------------|----------------|
G|----------------|----------------|----------------|----------------|
D|----------------|----------------|----------------|----------------|
A|----------------|----------------|----------------|----------------|
E|----------------|----------------|----------------|----------------|

No se si los solos estan bien pero suenan chido, se tocan con distorcion.
En los versos la guitarra 2 es limpia, y la 1 sale.
En los coros las dos van distorcionadas.
Otros videos de esta canción
    417 exhibiciones
      • ½ Tono
      • A
      • Bb
      • B
      • C
      • Db
      • D
      • Eb
      • E
      • F
      • F#
      • G
      • Ab
    • Agregar a la lista

    Afinação da cifra

    Afinador online

      Ops (: Contenido disponible solo en portugués.
      OK