Cifra Club

Patrick

June

Cifrado: Principal (guitarra y guitarra eléctrica)
Selo Cifra Club: esta cifra foi revisada para atender aos critérios oficiais da nossa Equipe de Qualidade.
tono: B
Tabbed by: jayke
Email: *

Tuning: drop D - DADGBe

and a friend figured out. i hope its right. this is my first tab. it has some of the 
and most of, if not all of the rhythm. email me with any comments, tips, or hate mail


 INTRO         MAIN RIFF                 VERSE (P.M. in second verse)
e|-4--|   |------------------------|  |-------------------------------------|
B|-4--|x4 |------------------------|  |-------------------------------------|
G|-4--|   |-------------444--333---|  |-------------------------------------|
D|-4--|   |--6--44--2---444--333---|  |-22--222--222--222--222--222--222-2--|
A|-6--|   |--6--44--2---222--111---|  |-22--222--222--222--222--222--222-2--|
D|-6--|   |--6--44--2--------------|  |-22--222--222--222--222--222--222-2--|

   VERSE (continued)                                VERSE PART 2   x3
e|----------------------------------------------| |-------------------|
B|----------------------------------------------| |-------------------|
G|----------------------------------------------| |-------------------|
D|--6-6--2-212-2-222--222--6666-6666--9999-9999-| |--2-22-2--6-666----|
A|--6-6--2-212-2-222--222--6666-6666--9999-9999-| |--2-22-2--6-666----|
D|--6-6--2-212-2-222--222--6666-6666--9999-9999-| |--2-22-2--6-666----|

                 VERSE PART 2 (continued)
e|------------------------| |-------------------------|
B|------------------------| |-------------------------|
G|--8/111111\99\66/8------| |-------------------------|
D|------------------------| |-6666-6666-4444-4444-----|
A|--6/-9-9-9\66\44/6------| |-6666-6666-4444-4444-----|
D|------------------------| |-6666-6666-4444-4444-----|
    ^    lead lick    ^

   PRE-CHORUS
e|---------------------------------------------------------------|
B|---------------------------------------------------------------|
G|--------------------------------------------------------4------|
D|--2------6------1--4---2------6------1-1111--4-4444--6--4------|
A|--2------6------1--4---2------6------1-1111--4-4444--6--2------|
D|--2------6------1--4---2------6------1-1111--4-4444--6---------|
                                         ....    ....
CHORUS -
strum chords # needed
e|------------------|
B|------------------|
G|--------------4---|
D|--2---4---6---4---|
A|--2---4---6---2---|
D|--2---4---6-------|


SOLO
 strum to rhythm for rhythm guitar before and during solo
   ^                         |            x2             |
e|---| |-------------------| |-------------------------6-| |-6--------------|
B|---| |--4----------------| |---------------------4/7-7-| |---7--------4-4-|
G|---| |----4--3b4b3----3--| |-3b4b3----3b4b3----4-------| |------8-----4-4-|
D|-6-| |--------------4---4| |-------4---------4---------| |------------4-4-|
A|-6-| |-------------------| |---------------------------| |----------------|
D|-6-| |-------------------| |---------------------------| |----------------|

BRIDGE   - words are when to change chords.
e|---------------------------------------------------------------------|
B|---------------------------------------------------------------------|
G|---------------------------------------------------------------------|
D|-6---------2----------5-------6------4------2-------6-----4-------2--|
A|-6---------2----------5-------6------4------2-------6-----4-------2--|
D|-6---------2----------5-------6------4------2-------6-----4-------2--|
"would"  "this fire" "almost" "WOULD" "IF" "WOULD"  "TAKE" "take" "PLEASE"

  BRIDGE(continued)
e|------------------|
B|------------------|
G|-----4------------|
D|-6---4------------|
A|-6---2------------|
E|-6----------------|
 "Doo-wwn"

song order:
Intro (with main riff x2)
main riff x 2
verse
verse part 2
pre chorus
chorus x1.5(end on f#)
main riff x1
verse
verse part 2
chorus x4
solo
bridge
chorus x

| /  slide up
| \  slide down
| h  hammer-on
| p  pull-off
| ~  vibrato
| +  harmonic
| .  palm mute
===============================================================================
Otros videos de esta canción
    11 exhibiciones
      • ½ Tono
      • A
      • Bb
      • B
      • C
      • Db
      • D
      • Eb
      • E
      • F
      • F#
      • G
      • Ab
    • Agregar a la lista

    Afinação da cifra

    Afinador online

      Ops (: Contenido disponible solo en portugués.
      OK