Cifra Club

Baby

Justin Bieber

Tablatura: Versão 4 (guitarra)
tono: E (con acordes en la forma de Eb) Capotraste na 1ª casa
(capo 1ª casa)

E|---------------|---------------|---------------|
B|-4-6-8-6-4-3-1-|-4-6-8-6-4-3-1-|-4-6-8-6-4-3-1-|
G|---------------|---------------|---------------|

E|---------------------------------|
B|-4-6-8-6-4-6---4h6p4-3h4p3-1h3p1-|
G|---------------------------------|

E|---6-------|---6-----|---6-------|---6------|
B|-----8-6-8-|-----8-6-|-----8-6-8-|-----8-6--|
G|-8---------|-8-------|-8---------|-8-------8|

E|-6-6-------|-6-6-----|-------------------------|---------|
B|-----8-6---|-----8-6-|-----6-6-8-6-8-6-8-6-8-6-|-----6---|
G|---------8-|---------|-8-8---------------------|-8-8---8-|

E|-------------6-|-------------8-|
B|-8-6-8-6-8-6---|-8-6-8-6-8-6---|
G|---------------|---------------|

E|-------------6-|-------------------------|
B|-8-6-8-6-8-6---|-8-6-8-8-8---6h8p6-4h6p4-|
G|---------------|-------------------------|

E|---------------6-------|----------------------------|
B|-6-8-6-8---------8-6---|-----6-9-8-6-9--8-6-4-4h6p4-|
G|---------8-8-8-------8-|-8-8------------------------|

E|-----------------|-----------------|
B|-------6-6h8-6h8-|-----6h8-6h8-6h8-|
G|-8-8-8-----------|-8-7-------------|

E|---------------------------|
B|-----6-8-6-6-------6-8-6-6-|
G|-8-8-----------8-8---------|

E|-------------|-----------|---------------------------|
B|-----6-6h8---|---6-8-6-8-|---6-8-8-6-4-8-8-6-4-4h6p4-|
G|-8-8-------8-|-8---------|-8-------------------------|

E|---------------------|-------------|---------------|-------|
B|-----6-6h8-----------|-8-8-6-8-6-8-|-8-8-8-6-6-6-6-|-4-4-6-|
G|-8-8-------7-/-5-/-3-|-------------|---------------|-------|

E|-------------6-|-------------8-|
B|-8-6-8-6-8-6---|-8-6-8-6-8-6---|
G|---------------|---------------|

E|-------------6-|-------------------------|
B|-8-6-8-6-8-6---|-8-6-8-8-8---6h8p6-4h6p4-|
G|---------------|-------------------------|

(Aguardem a parte do Ludacris... quando eu conseguir fazer,eu coloco).

 (-repete-6x-)
E|-----------|(Parte do "Hey,hey - now i’m gone”...).
B|-8-6-------|
G|-----8-----|
D|-----------|
A|-----------|
E|-----------|

E|---|-------------|---------|
B|-6-|-6h8p6-6h8p6-|-3-h-4-4-|
G|---|-------------|---------|
Composição de C. Stewart / Christina Milian / Christopher Bridges / Justin Bieber / Terius Nash
Colaboración y revision:
  • Thyerrí Cruz
70 reproducciones
    • ½ Tono
    • A
    • Bb
    • B
    • C
    • Db
    • D
    • Eb
    • E
    • F
    • F#
    • G
    • Ab
  • Adicionar à lista

    0 comentarios

    Ver todos os comentários

    ¿Conseguiste tocar?

    3 Tocaram 0 Ainda não

    Grave um vídeo tocando Baby e nos envie!

    00:00 / 00:00
    outros vídeos desta música
    repetir qualidade Automático
    Outros vídeos desta música
    00:00 / 00:00
    Automático
    OK