Cifra Club

Mi Credo

K Paz

Cifrado: Principal (guitarra y guitarra eléctrica)
tono: D
Introdução:
e|-9/10----12--10----12--10----10-12-14-15-14--10-10-10-14-12--
B|-----10---------10-------------------------------------------
G|-------------------------------------------------------------
D|-------------------------------------------------------------
A|-------------------------------------------------------------
E|-------------------------------------------------------------

Apartir de aquí se acampaña con rasgueo en:

D Bm G A7 G A7 F#m Bm G A7 D
e|-------------------------------------------------------------
B|-------------------------------------------------------------
G|-7---9-7---9-7---7-9-11-12-11-7-7-7-11-9---------------------
D|--7------7---------------------------------------------------
A|-------------------------------------------------------------
E|-------------------------------------------------------------

e|-10-10-10----------------------------------------------------
B|------------10-12--12-12-14-15-14--14-14-15-17-10------------
G|---------12--------------------------------------------------
D|-------------------------------------------------------------
A|-------------------------------------------------------------
E|-------------------------------------------------------------

e|--------------------------------------------------12-10------
B|-10-10--10-12---12-13-12-10--12-15--14-14-14-14-15-----------
G|------11-------------------11--------------------------------
D|-------------------------------------------------------------
A|-------------------------------------------------------------
E|-------------------------------------------------------------

D                Bm
Por donde vayas ire
  Em                   A7
Con una venda en los ojos
  D                 Bm
Lo que decidas haré
 Em                    G          A7
El amor cuando es verdad es uno solo.

 D                    Bm
No me preguntes por que.
  Em                A7
He sido bueno contigo
  D                        Bm
Solo se que eres mi religion

Em                    G         A7
 Que me importa si lo llaman fanatismo
                      G
Sin ti yo no soy el mismo
          A7
Eres mi credo
            F#m
Pedazo de cielo
           Bm
Abrazame fuerte
                     G
Mi trebol de buena suerte
           G           A7
Prefiero morir junto a ti...
       D
A no verte.

*** Se vuelve a repetir esta parte ***

(Hablado)
Oye mija por donde quiera que vayas ire
Con una venda en los ojos por que te amo, te amo, te amo

D Bm G A7 G A7 F#m Bm G A7 D
e|-------------------------------------------------------------
B|-------------------------------------------------------------
G|-7---9-7---9-7---7-9-11-12-11-7-7-7-11-9---------------------
D|--7------7---------------------------------------------------
A|-------------------------------------------------------------
E|-------------------------------------------------------------

e|-10-10-10----------------------------------------------------
B|------------10-12--12-12-14-15-14--14-14-15-17-10------------
G|---------12--------------------------------------------------
D|-------------------------------------------------------------
A|-------------------------------------------------------------
E|-------------------------------------------------------------

e|--------------------------------------------------12-10------
B|-10-10--10-12---12-13-12-10--12-15--14-14-14-14-15-----------
G|------11-------------------11--------------------------------
D|-------------------------------------------------------------
A|-------------------------------------------------------------
E|-------------------------------------------------------------

 D                    Bm
No me preguntes por que
  Em                A7
He sido bueno contigo
 D                        Bm
Solo se que eres mi religion
   Em                    G         A7
Que me importa si lo llaman fanatismo
                     G
Sin ti yo no soy el mismo
          A7
Eres mi credo
            F#m
Pedazo de cielo
            Bm
Abrazame fuerte
                    G
Mi trebol de buena suerte
          G             A7
Prefiero morir junto a ti...
       D
A no verte.

e|-10-10-10----------------------------------------------------
B|------------10-12--12-12-14-15-14--14-14-15-17-10------------
G|---------12--------------------------------------------------
D|-------------------------------------------------------------
A|-------------------------------------------------------------
E|-------------------------------------------------------------

e|--------------------------------------------------12-10------
B|-10-10--10-12---12-13-12-10--12-15--14-14-14-14-15-----------
G|------11-------------------11--------------------------------
D|-------------------------------------------------------------
A|-------------------------------------------------------------
E|-------------------------------------------------------------

Sin ti yo no soy el mismo…..

(termina asi)

e|-10-10-10-----------------------------------12-10------10-10-
B|------------10-12--12-12-14-15-14--14-14-15------------------
G|---------12--------------------------------------------------
D|-------------------------------------------------------------
A|-------------------------------------------------------------
E|-------------------------------------------------------------
Compositor no encontrado.
Colaboración y revisión:
  • adrian
586 vistas
    • ½ Tono
    • A
    • Bb
    • B
    • C
    • Db
    • D
    • Eb
    • E
    • F
    • F#
    • G
    • Ab
  • Agregar a la lista

    0 comentarios

    Ver todos los comentarios

    ¿Lograste tocar?

    0 Tocaron 0 Aún no

    ¡Graba un video tocando Mi Credo y envíanoslo!

    00:00 / 00:00
    Otros videos de esta canción
    Repetir Calidad Automático
    Otros videos de esta canción
    00:00 / 00:00
    Automático
    OK