Cifra Club

All The Pretty Girls

Kaleo

Tablatura: Principal (guitarra)
Tom: Db (con acordes en la forma de C) Capo en 1ª casa
[Intro]

       Am
E|---------3-0-------0---------------0------3-0------0-----------------|
B|-----3/5-----3h1---1---3/5-5-3h1---1--3/5-----3-1--1-----------------|
G|-------------------2---------------2---------------0-----------------|
D|-------------------2---------------2---------------2--0h2-2-2h0------|
A|-------------------0---------------0---------------3-------------3---|
E|-------------------0---------------0---------------0-----------------|

Am      G                 C
All the pretty girls like samuel
Am      G                 C
Ohh he really doesn't share
Am            G                 C
Although it's more than he can handle
Am        G            F
Life is anything but fair, life is anything but fair

( Am  G  C )
( Am  G  C )

Am       G                C
Just as soon as they turn older
Am             G                    C
He'll come and sweep them off their feet
Am         G             C
It's only making me feel smaller
Am       G           F
All the hidden love beneath

           Am    G          C
Won't you lay me, won't you lay me down
           Am    G          F      C
Won't you lay me, won't you lay me down
           Am    G          F      C
Won't you lay me, won't you lay me down
           Am    G          G7        Am
Won't you lay me, won't you lay - me down

( Am  G  C )
( Am  G  C )

E|---------------------------------------------------------------------|
A|------9--------9--------------9------11-9----------------------------|
D|-8h10----8h10----10-8----8h10---8h10------10h8-----------------------|
G|----------------------11-----------------------11--------------------|
B|---------------------------------------------------------------------|
E|---------------------------------------------------------------------|

E|---------------------------------------------------------------------|
A|------9--------9-----------------------------------------------------|
D|-8h10----8h10----10-8-6-8-6------------------------------------------|
G|---------------------------------------------------------------------|
B|---------------------------------------------------------------------|
E|---------------------------------------------------------------------|

Dm               G7
All alone, alone again
                       Am
No one lends a helping hand
       C      F       C
I have waited, i have waited

Dm                             G7
Takes it's toll, one's foolish pride
                          Am
How long before i see the light
       C       F      C
I have waited, i have waited
    Dm            G7
For you to lay me down

Am      G           C
Sail on by, sail on by for now
Am         G           C
They play naked in the water
Am            G            C
You know it's hard, heaven knows i've tried
Am     G          F
But it just keeps getting harder

             Am     G          C
So won't you lay me, won't you lay me down
           Am    G          F      C
Won't you lay me, won't you lay me down
           Am    G          F      C
Won't you lay me, won't you lay me down
           Am    G          G7        Am
Won't you lay me, won't you lay - me down

     Am                    G                   C
I'll wait, i'll wait, i'll wait, i'll wait for you
     Am                    G                   F    C
I'll wait, i'll wait, i'll wait, i'll wait for you
     Am                    G          F        C
I'll wait, i'll wait, i'll wait, i'll wait for you
     Am                    G                   C
I'll wait, i'll wait, i'll wait, i'll wait for you

           Am      G
For you to lay me
          C
Won't you lay me down
reproducciones 596
Acordes para:
    Colaboración y revision:
    • Guilherme Machado
    • Gabriel Orte
    • Daniel Vinicius

    0 comentarios

    mostrar más comentarios

    ¿Conseguiste tocar?

    11 tocaron 0 aún no

    ¡Graba un vídeo tocando All The Pretty Girls y envianoslo!

    00:00 / 00:00
    outros vídeos desta música
    repetir qualidade Automático
    Outros vídeos desta música
    00:00 / 00:00
    Automático
    OK