Cifra Club

Broken Bones

Kaleo

Tablatura: Principal (guitarra)
Tom: A
[Intro]

The Devil's gonna make me a free man
The Devil's gonna set me free
The Devil's gonna make me a free man
The Devil's gonna set me free


[Solo]

          Gm
E|------3------------------------------------------------------------------------|
B|------3------------------------------------------2-----------------------------|
G|------3----------------0----3--0-0---3/5---3--5-----5--3-----5--3--5--7--------|
D|------5----------o--3----------------------------------------------------------|
A|------5------------------------------------------------------------------------|
E|------3------------------------------------------------------------------------|

E|------------------------------|
B|------------------------------|
G|----------------0----0--------|
D|----0--3---0----0----0--------|
A|------------------------------|
E|------------------------------| 2x


[Verso]

              Gm             Cm
I've been down, deep Texas. Mississippi state.

  D                        Gm
Hoping things might go my way.

          Gm            Cm
For every hard earned dollar I make

  D                                Gm
there stands a white man just to take it away.

                Gm            Cm
Some might say I talk loud, see if I care.

   D                      Gm
Unlike them, don't walk away from my fear

                    Gm              Cm
I've busted bones, broken stones, looked the devil in the eye

   D                                 Gm
I hope he's going to break these chains.


[Refrão]

       Eb               D           Gm
The Devil's going to make me a free man

        Eb            D       Gm
the Devil's going to set me free

        Eb              D          Gm
The Devil's going to make me a free man

        Eb            D        Gm
the Devil's going to set me free


[Solo]

E|---------------------------------------------------------------------------|
B|-------------------------------------------------2--------------------------|
G|------------------------0---3--0-0---3/5---3--5-----5--3-----5--3--5--7----|
D|-----------------o--3------------------------------------------------------|
A|---------------------------------------------------------------------------|
E|---------------------------------------------------------------------------|

E|--------------------------------|
B|--------------------------------|
G|----------------0----0----------|
D|----0--3---0----0----0----------|
A|--------------------------------|
E|--------------------------------| 2x


         Gm             Cm
Another hard day, no water no rest.

    D                    Gm
I saw my chance so I got him at last.

            Gm              Cm
I took his six shooter, put two in his chest

      D                 Gm         Eb          D         Gm
He'll never say a word no more, he'll never say a word no more.

E|------6--3-3----1--3--1---------------------|
B|--------------------------1-----------------|
G|-----------------------------3--------------|
D|--------------------------------------------|
A|--------------------------------------------|
E|--------------------------------------------|

  Eb          D          Gm
The devil got him good for sure.

              Gm             Cm
Ain't got no place to call a home,

       D7              Gm
only chains and broken bones.

              Gm             Cm
Ain't got no place to call a home

       D7                      Gm
so come on lord won't you take me now

              Gm              Cm
Ain't got no place to call a home,

       D7               Gm
only chains and broken bones.

              Gm             Cm
Ain't got no place to call a home

        D7                     Gm
so come on lord what you waiting for.


[Solo]

E|---------------------------------------------------------3-6/3-3---3/10----|
B|-----2b3-3-3-3-3-3-2---1-------------1--1/31----3/6--3-6------------------|
G|-------------------------3--0-----3----------------------------------------|
D|---------------------------------------------------------------------------|
A|---------------------------------------------------------------------------|
E|---------------------------------------------------------------------------|

E|---10--10-8-6-8---6-3-6-6-3--3-1-------------------------------------------|
B|---------------------------------3---0h1-------2-1---1---------------------|
G|-----------------------------------3-----3--0------3---3-0---0-0-3/12------|
D|-----------------------------------------------------------3---------------|
A|---------------------------------------------------------------------------|
E|---------------------------------------------------------------------------|

E|-----------9-6-8-6---8/9/3-3--6---9-8-6-8-6-3-1-3-3-6---9-6-8-6---8/9/3----|
B|---3/6-8-------------------------------------------------------------------|
G|---------------------------------------------------------------------------|
D|---------------------------------------------------------------------------|
A|---------------------------------------------------------------------------|
E|---------------------------------------------------------------------------|

E|---3--6---------------------------------|
B|----------6h8p6--3-6-3-1---1------------|
G|-------------------------3---3-0-0------|
D|----------------------------------------|
A|----------------------------------------|
E|----------------------------------------|


       Eb          D           Gm
The Devil's going to make me a free man

        Eb          D         Gm
the Devil's going to set me free

        Eb          D          Gm
The Devils going to make me a free man

         Eb         D         Gm
the Devil's going to set me free
reproducciones 228
Acordes para:
    Colaboración y revision:
    • Otávio Simões
    • Marlon Wallacy

    0 comentarios

    mostrar más comentarios

    ¿Conseguiste tocar?

    2 tocaron 0 aún no

    ¡Graba un vídeo tocando Broken Bones y envianoslo!

    00:00 / 00:00
    outros vídeos desta música
    repetir qualidade Automático
    Outros vídeos desta música
    00:00 / 00:00
    Automático
    OK