Cifra Club

No Good

Kaleo

Tablatura: Principal (guitarra)
Tom: G
          Riff 1                                     

E|------------------------------------------------------------------------   
B|------------------------------------------------------------------------
G|------------------------------------------------------------------------
D|------------------------------------------------------------------------
A|------------------------------------------------------------------------
E|-0h3-0---0h3-0---0h3-0-0-0-0h3-0-0-0--0h3-0-----------------------------

                       Riff 2
 
E|--3-0---------------3-0--3h5-5-5-3-0--3-0--------------------------------
B|-------------------------------------------------------------------------
G|------2-0-2h4-2-0-------------------------2-0-2h4-2-0----2-2-0-----------
D|------------------2-----------------------------------2--------2-0h2-0h2-  (2x)
A|-------------------------------------------------------------------------
E|-------------------------------------------------------------------------


(SE PREFERIR PODE FAZER A INTRO COMO: EM G EM (RIFF 1) - EM G EM A9 - A9 G EM (RIFF 2), TAMBÉM FICA BOM)


       Em
Can't fight the temptation
         Em
When you get the vibration
                  A9  G  Em
Won't do you no good,no good
                  A9  G  Em
Won't do you no good,no good

     Em
You better start running
         Em
When you hear the man coming
                  A9  G  Em
Won't do you no good,no good
                  A9  G  Em
Won't do you no good,no good

             C
No we don't mind
              Am
If you don't mind

Hell I never mind!

(Riff 2)

    Em
Now let the moment break you
        Em
Let the feeling come take you
                  A9  G  Em
Won't do you no good,no good
                  A9  G  Em
Won't do you no good,no good

         Em
And you know I got feelings
           Em
Won't you hit me right, you know you might as well
                  A9  G  Em
Won't do you no good,no good
                            A9  G  Em
'Cause he won't do you no good,no good

            Em                 A9
And I said kiss your baby goodbye
                          G
Come on, love, it's alright!
                          C        A9
Heaven knows they wanna break you apart, yeah

 Em                 A9
Kiss your baby goodbye
                          G
Come on, love, it's alright!
                           C         A9
You never know unless you give it a try

Oh baby

   (Riff 2)

'Said do you no good, yeah!

       Em
Can't fight the temptation
          Em
When you get the vibration
                  A9  G  Em
Won't do you no good,no good                  
                  A9  G  Em
Won't do you no good,no good
             Em
And you can tell I got feelings
             Em
You try to shake it off, I know you won't
                      A9  G  Em
You won't do you no good,no good
                        A9  G  Em
Today won't do you no good,no good

            Em                 A9
And I said kiss your baby goodbye
                          G
Come on, love, it's alright!
                          C        A9
Heaven knows they wanna break you apart, yeah

 Em                 A9
Kiss your baby goodbye
                          G
Come on, love, it's alright!
                           C         A9
You never know unless you give it a try


(mantém em A9,G,Em)

Yeah, yeah!
Whoa, yeah!
No, no, baby
Yeah!
Whoa yeah!
Want my sweet little baby
Whoa you're no good babe, yeah!
I said yeah
One day yeah, baby!
Ah yeah
Woo!
Oh yeah!

(Riff 1 e 2)
reproducciones 372
Acordes para:
    Colaboración y revision:
    • Marlon Vicentini

    0 comentarios

    mostrar más comentarios

    ¿Conseguiste tocar?

    3 tocaron 0 aún no

    ¡Graba un vídeo tocando No Good y envianoslo!

    00:00 / 00:00
    outros vídeos desta música
    repetir qualidade Automático
    Outros vídeos desta música
    00:00 / 00:00
    Automático
    OK