Cifra Club

Mi otro yo

Kalimba

Cifrado: Principal (guitarra y guitarra eléctrica)
tono: F#
Intro    Riff 1   (2)


Lets go!!

Riff 1
Guitarra 1
   F#   C#   B    C#
E|--------------------------------------------------------|
B|--7---7---------------5-6---7---7---------------5-6-----|
G|-------6---6-4---6--6------------6---6-4---6--6---------|
D|--------------------------------------------------------|
A|--------------------------------------------------------|
E|--------------------------------------------------------|

Guitarra 2
E|----5---7-5-----5---7-5-----5---7-5---7-5-7-5-7-5-7-5---|
B|--7-----------7-----------7-----------------------------|
G|--------------------------------------------------------|
D|--------------------------------------------------------|
A|--------------------------------------------------------|
E|--------------------------------------------------------|

Riff 2
   F#   C#   B    C#
E|-----------------------------|
B|-----------------------------|
G|-----------------------------|
D|---4---4-------------2-3-----|
A|--------4---4-2--4--4--------|
E|-----------------------------|

Riff 2                  Riff 2
Yo sé, todo me sale bien,
siempre seguro porque soy un hedonista.
Riff 2                         Riff 2
Y sé, que el mundo esta a mis pies,
porque la suerte me acompaña día a día.

Yo sé, que soy tan especial,
que se desmayan cuando muestro mi sonrisa.
tal vez yo soy un talismán,
y el que me toca puede mejorar su vida.

CORO I
Riff 3                       Riff 3
      Pero después vienes tú,
                    Riff 3
y entonces todo cambió,
                        Riff 3
tiemblo y se apaga mi luz,
                              Intro
y todo porque no me quieres ver.



Yo sé, todo me sale mal,
te me metiste y ahora vivo en agonía.
También el mundo se me va,
y es que la suerte me abandona cada día.

PDC ORO
Llegaste y me transformaste,
me hechizaste y no puedo vivir sin ti.
deshaces lo que un día amaste,
me partes no quieres saber nada de mí.

CORO II
Y sabes bien que eres tú,
la que mi vida cambió,
tiemblo y se apaga mi luz,
y todo porque no me quieres ver.

Riff 1

CORO

G  O   /F#  /C#  /B  /C#  (8)

PDC ORO
CORO II

Riff 3
   /F#    /A
E|-------------|
B|-------------|
G|-------------|
D|---4--4-7b---|
A|-------------|
E|-------------|
Composición de E. Grenci / K.Marichal / O.Schwebel
    • ½ Tono
    • A
    • Bb
    • B
    • C
    • Db
    • D
    • Eb
    • E
    • F
    • F#
    • G
    • Ab
  • Agregar a la lista

    0 comentarios

    Ver todos los comentarios

    ¿Lograste tocar?

    0 Tocaron 0 Aún no

    ¡Graba un video tocando Mi otro yo y envíanoslo!

    00:00 / 00:00
    Otros videos de esta canción
    Repetir Calidad Automático
    Otros videos de esta canción
    00:00 / 00:00
    Automático
    OK