Cifra Club

Nunca Sabrás

Kalimba

Cifrado: Principal (guitarra y guitarra eléctrica)
tono: Bm
G A Em

    C9          Em7         C9          Em7
e /----------/-----------/-----------/-----------/
b /----3----3/-----3----3/-----3----3/-----3----3/
g /---0----0-/----0----0-/----0----0-/----0----0-/
D|---4----4--/---4----4--/---4----4--/---4----4--/|
A|--3----3---/-----------/--3----3---/-----------/|
E|-----------/--0----0---/-----------/--0----0---/|

    C9          Em7         G    A9     Em7
e /----------/-----------/-----------/-----------/
b /----3----3/-----3----3/-----3----0/-----3----3/
g /---0----0-/----0----0-/----0----2-/----0----0-/
D|---4----4--/---4----4--/---0----2--/---4----4--/|
A|--3----3---/-----------/-------0---/-----------/|
E|-----------/--0----0---/--3--------/--0----0---/|

    C9          Em7             C9          Em7
e /----------/------0---------/-----------/-----------/
b /----3----3/-----3-3--3--3--/-----3----3/-----3----3/
g /---0----0-/----0---0--4--0-/----0----0-/----0----0-/
D|---4----4--/---4-----------4/---4----4--/---4----4--/|
A|--3----3---/----------------/--3----3---/-----------/|
E|-----------/--0-------------/-----------/--0----0---/|

    C9          Em7              G    A9     Em7
e /----------/------0---------/-----------/-----------/
b /----3----3/-----3-3--3--3--/-----3----3/-----3----3/
g /---0----0-/----0---0--4--0-/----0----2-/----0----0-/
D|---4----4--/---4-----------4/---0----2--/---4----4--/|
A|--3----3---/----------------/-------0---/-----------/|
E|-----------/--0-------------/--0--------/--0----0---/|


G A Em
C9        Em7 C9           Em7
Tú no sabrás   que fuiste mi tesoro,
C9       Em7 G         A9      Em7
Y ahora voy caminando sin tu amor.
C9        Em7  C9              Em7
Tú no sabrás    que hoy te extraño tanto,
C9        Em7 G        A9      Em7
La media luz me recuerda tu mirar.

   G         A9
Intento olvidarte.


      A  E     B          F#m               A  E
     Fallo, quiero no pensarte y sólo hay llanto
    B          F#m         A  E
     Quiero curarme tu recuerdo,
        B          F#m        A  E
     Quiero no sufrir este momento.
          F#m  G#m     A     B     C9
     Cuánto te amo ya nunca lo sabrás.


Tú no sabrás que para mí eras todo
Y siempre estás dentro de mi corazón.
Intento olvidarte.

      A  E     B          F#m               A  E
     Fallo, quiero no pensarte y sólo hay llanto
    B          F#m         A  E
     Quiero curarme tu recuerdo,
        B          F#m        A  E
     Quiero no sufrir este momento.
          F#m  G#m     A     B     A
     Cuánto te amo ya nunca lo sabrás.

    C#m C         Violines          C#m B
                 e /----------7--/
                 b /------7-9----/
                 g /----9--------/
D|--------------/|
A|--0-----------/|
E|--------------/|

Em        D     E
Era más fácil que
Em           D       E
Te quedaras junto a mí,
    Em    D   Em
Y ahora sólo sé
        G         A
Que intento olvidarte.

      A  E     B          F#m               A  E
     Fallo, quiero no pensarte y sólo hay llanto
    B          F#m         A  E
     Quiero curarme tu recuerdo,
        B          F#m        A  E
     Quiero no sufrir este momento.
          F#m  G#m     A     B     C9
     Cuánto te amo ya nunca lo sabrás.

Em7  C9 (x 3)
G  A  Em
Composición de Fernando Pantini
1 vistas
    • ½ Tono
    • Am
    • Bbm
    • Bm
    • Cm
    • C#m
    • Dm
    • Ebm
    • Em
    • Fm
    • F#m
    • Gm
    • G#m
  • Agregar a la lista

    0 comentarios

    Ver todos los comentarios

    ¿Lograste tocar?

    0 Tocaron 0 Aún no

    ¡Graba un video tocando Nunca Sabrás y envíanoslo!

    00:00 / 00:00
    Otros videos de esta canción
    Repetir Calidad Automático
    Otros videos de esta canción
    00:00 / 00:00
    Automático
    OK