Cifra Club

Ave Expurgo

kamaitachi

Tablatura: Principal (guitarra)
Tom: Cm
[Dedilhado] 

  Cm
E|-------------3---------3-----------3----------|
B|-------4-------------4---4-------4---4--------|
G|-----5---5---------5-------5---5-------5------|
D|---5-------5----------------------------------|
A|-3---------------3-----------3----------------|
E|----------------------------------------------|


   G#
E|-------------4---------4-----------4----------|
B|-------4-------------4---4-------4---4--------|
G|-----5---5---------5-------5---5-------5------|
D|---6-------6----------------------------------|
A|----------------------------------------------|
E|-4---------------4-----------4----------------|

   F7
E|-------------1---------1-----------1----------|
B|-------1-------------1---1-------1---1--------|
G|-----2---2---------2-------2---2-------2------|
D|---1-------1----------------------------------|
A|----------------------------------------------|
E|-1---------------1-----------1----------------|

   G#7                      G7
E|-------------4----------------------3---------|
B|-------4----------------------3---------------|
G|-----5---5------------------4---4-------------|
D|---4-------4--------------3-------3-----------|
A|----------------------------------------------|
E|-4----------------------3---------------------|

Cm
Bendita noite
                                     G#
Hora de soltar a raiva que tu sente desse pobre mundo
                                          F7
Que ama ver desgraça alheia, apaixonada pelo próprio orgulho
                                              G#7
Que pisa em cacos, alma fraca, pra chegar no topo absoluto
 G7
Que faz dos outros seu escudo
Cm
  Ave expurgo
                                      G#
Purifique todos, limpe pragas desse maldito mundo
                                            F7
Bendito seja aquele que não tenha medo de soltar seu próprio surto
                                  G#7
Banha-se do ódio, faça do seu cúmulo o abismo absoluto
G7
Ave expurgo

Cm
  Maldita noite
                                   G#
Boa pra alimentar demônios que no dia passa fome
                                         F7
Se o gato mata o rato pra se divertir, porque tu se esconde?
                                     G#7
Leões perdem a majestade quando as hienas vem cercando aos montes
G7
E o consome
Cm
  Maldito somos
                                         G#
Mentimos, fingimos, pisamos em todos, aceite todos somos frios
                                    F7
Seguimos caminhos que levam o que eu quero, não o que eu necessito
                                      G#7
Pensamento de Maquiavel, se quer comandar então seja temido
G7
Um brinde ao nosso egoísmo!

[Final] Cm
reproducciones 66
Acordes para:
    Composição: K a m a i t a c h i Colaboración y revision:
    • Math Arcanjokw
    • Rayne Marcondes
    • Igor Eckerström

    0 comentarios

    mostrar más comentarios

    ¿Conseguiste tocar?

    10 tocaron 10 aún no

    ¡Graba un vídeo tocando Ave Expurgo y envianoslo!

    00:00 / 00:00
    outros vídeos desta música
    repetir qualidade Automático
    Outros vídeos desta música
    00:00 / 00:00
    Automático
    OK