Cifra Club

Homem Torto

k a m a i t a c h i

Cifrado: Principal (guitarra y guitarra eléctrica)
tono: Ebm (con acordes en la forma de Dm) Capotraste en 1ª casa
[Intro]

Parte 1 De 2  

   Dm             F            
E|---1-1---1-1----------------|
B|---3-3---3-3----1-1---1-1---|
G|---2-2---2-2----2-2---2-2---|
D|-0-----0--------3-3---3-3---|
A|----------------------------|
E|--------------1-----1-------|

   Bb             A
E|----------------------------|
B|---3-3---3-3----2-3-2-0-2---|
G|---3-3---3-3----2-2-2-2-2---|
D|---3-3---3-3----2-2-2-2-2---|
A|-1-----1------0-------------|
E|----------------------------|

Parte 2 De 2  

   Dm             F            
E|---1-1---1-1----------------|
B|---3-3---3-3----1-1---1-1---|
G|---2-2---2-2----2-2---2-2---|
D|-0-----0--------3-3---3-3---|
A|----------------------------|
E|--------------1-----1-------|

   Bb              A
E|---------------3--0---------|
B|---3-3---3-3---2--2---------|
G|---3-3---3-3---2--2---------|
D|---3-3---3-3---2--2---------|
A|-1-----1-------0--0---------|
E|----------------------------|

Dm                  F
   Ele pode até não ter olhos
    Bb             A
Mas sabe onde você se esconde
Dm              F
   Ele parece estar feliz
   Bb             A
Em ver o medo que te consome

Dm         F
Homenzinho torto
        Bb
Bela cartola você tem
   A
Cartola você tem
Dm         F
Homenzinho torto
    Bb
Com seu andar de morto
        A
Monstro que vem do além

Dm
1, 2
F
Não olhe pra trás
Bb
3, 4
   A
Correr não adianta mais
Dm
5, 6
   F
Chegou a sua vez
   Bb
7, 8, 9, 10
    A
Ele vai puxar seus pés

Dm
1, 2
F
Não olhe pra trás
Bb
3, 4
   A
Correr não adianta mais
Dm
5, 6
   F
Chegou a sua vez
   Bb
7, 8, 9, 10
    A
Ele vai puxar seus pés

Dm            F
   Lá, lá, lá
           Bb
   Lá, lá, láia, láia 
       A
   Lá, láia

   Dm             F            
E|---1-1---1-1----------------|
B|---3-3---3-3----1-1---1-1---|
G|---2-2---2-2----2-2---2-2---|
D|-0-----0--------3-3---3-3---|
A|----------------------------|
E|--------------1-----1-------|

   Bb              A
E|---------------3-----------|
B|---3-3---3-3---2-----------|
G|---3-3---3-3---2-----------|
D|---3-3---3-3---2-----------|
A|-1-----1-------0-----------|
E|---------------------------|

Dm                    F
   Ele senta em uma cadeira
   Bb          A
Ao lado da sua cama
Dm           F
   Ele sorri vendo
                    Bb
Você se debatendo enquanto
               A 
Corta sua garganta


Dm         F
Homenzinho torto
        Bb
Bela cartola você tem
   A
Cartola você tem
Dm         F
Homenzinho torto
    Bb
Com seu andar de morto
        A
Monstro que vem do além


Dm
1, 2
F
Não olhe pra trás
Bb
3, 4
   A
Correr não adianta mais
Dm
5, 6
   F
Chegou a sua vez
   Bb
7, 8, 9, 10
    A
Ele vai puxar seus pés

Dm
1, 2
F
Não olhe pra trás
Bb
3, 4
   A
Correr não adianta mais
Dm
5, 6
   F
Chegou a sua vez
   Bb
7, 8, 9, 10
    A
Ele vai puxar seus pés

( Dm  F  Bb  A )
( Dm  F  Bb  A )

Dm                    F
   Ele senta em uma cadeira
   Bb          A
Ao lado da sua cama
Dm           F
   Ele sorri vendo
                    Bb
Você se debatendo enquanto
             A
Corta sua garganta
Composición de kamaitachi
Colaboración y revisión:
3.346 vistas
    • ½ Tono
    • Am
    • Bbm
    • Bm
    • Cm
    • C#m
    • Dm
    • Ebm
    • Em
    • Fm
    • F#m
    • Gm
    • G#m
  • Agregar a la lista

    0 comentarios

    Ver todos los comentarios

    ¿Lograste tocar?

    163 Tocaron 50 Aún no

    ¡Graba un video tocando Homem Torto y envíanoslo!

    00:00 / 00:00
    Outros vídeos desta música
    Repetir Calidad Automático
    Outros vídeos desta música
    00:00 / 00:00
    Automático
    OK