Cifra Club

Aids

Kamikazee

Tab de bajo: Principal
Já pensou em usar uma coleção de roupas do Cifra Club? Responda as perguntas abaixo e nos ajude nessa missão! →
e-mail: *

Tuning: Standard

Intro:
G|----------|
D|----------|
A|-0--------|
E|----------|

G|---------------------------------------------------------------------------|
D|---------------------------------------------------------------------------|
A|-4-4-4-4-4-4-4-77777---------------------4-4-4-4-4-4-4-7777----------------|
E|---------------------5-5-5-5-5-5-5-77777--------------------5-5-5-5-5-5-5--|

G|----------|
D|----------|
A|-7-5-4-0--|
E|----------|

G|------------------------------------------|
D|------------------------------------------| 2x
A|-4-4-4-4-4-4-4-77777----------------------|
E|---------------------5-5-5-5-5-5-5-77777--|

Verse:
G|------------------------------------------|
D|------------------------------------------| 4x
A|-4-4-4-4-4-4-4-77777----------------------|
E|---------------------5-5-5-5-5-5-5-77777--|

Pre-Chorus:
G|------------------------------|
D|------------------------------|
A|-777777--------444444---------|
E|--------555555--------555555--|

Pre-Verse 2:
G|----------|
D|----------|
A|-0--------|
E|----------|
 
Verse 2:
G|------------------------------------------|
D|------------------------------------------| 2x
A|-4-4-4-4-4-4-4-77777----------------------|
E|---------------------5-5-5-5-5-5-5-77777--|

G|---------------------------------------------------------------------------|
D|---------------------------------------------------------------------------|
A|-4-4-4-4-4-4-4-77777---------------------4-4-4-4-4-4-4-7777----------------|
E|---------------------5-5-5-5-5-5-5-77777--------------------5-5-5-5-5-5-5--|

G|----------|
D|----------|
A|-7-5-4-0--|
E|----------|

Pre-Chorus:
G|------------------------------|
D|------------------------------|
A|-777777--------444444---------|
E|--------555555--------555555--|

Chorus:
G|-------------------------------------------------------------|
D|-------------------------------------------------------------|
A|-777777--------444444---------777777--------444444--------7--|
E|--------555555--------555555---------555555--------555555----|

Bridge:
G|--------------------------------------------------|
D|--------------------------------------------------|
A|-77-----------44----------77-----------44---------|
E|--------55-----------55----------55-----------55--|

G|----------|
D|----------|
A|-7-5-4-0--|
E|----------|

G|--------------------------------------------------------|
D|--------------------------------------------------------|
A|-4-4-4-4-4-4-4-77777-----------------4-4-4-4-4-77777----|
E|---------------------5-5-5-5-5-77777-----------------5--|


Outro:
G|-------------------------------------------------------------|
D|-------------------------------------------------------------|
A|-777777--------444444---------777777--------444444--------7--|
E|--------555555--------555555---------555555--------555555----|

qng meron kaung suggestion mg pm nlng kau o txt nyu q 09163495151,,,
rate nyu naman tab q,,,tnx
===============================================================================
Compositor não encontrado.
12 vistas

0 comentarios

Ver todos los comentarios

¿Lograste tocar?

0 Tocaron 0 Aún no

¡Graba un video tocando Aids y envíanoslo!

00:00 / 00:00
Outros vídeos desta música
Repetir Calidad Automático
Outros vídeos desta música
00:00 / 00:00
Automático
OK