Cifra Club

Chinelas

Kamikazee

Tab de bajo: Principal
(intro)
g|---------------------------------|
d|---------------------------------|
a|---------------------------------|
e|-0-1h2-0-2h3-0-1h2-0-2h3-0-3-4-3-|

(verse)
g|------|-----|-----|-----|-----|-----|-----|
d|------|-----|-----|-----|-----|-----|-----|
a|------|-2~--|-3~--|-2~--|-3~--|-2~--|-3~--|
e|-0~~--|-----|-----|-----|-----|-----|-----|

g|-----|-------|-----|-------|-------|
d|-----|-------|-----|-------|-------|
a|-2~--|-2s4~--|-2~--|-2s4~--|-------|
e|-----|-------|-----|-------|-00-00-|

(chorus)
g|---------------------------------|
d|---------------------------------|
a|---------------------------------|
e|-0-1h2-0-2h3-0-1h2-0-2h3-0-3-4-3-|

(verse ii)
g|------|-----|-----|-----|-----|-----|-----|
d|------|-----|-----|-----|-----|-----|-----|
a|------|-2~--|-3~--|-2~--|-3~--|-2~--|-3~--|
e|-0~~--|-----|-----|-----|-----|-----|-----|

g|-----|-------|-----|-------|-------|
d|-----|-------|-----|-------|-------|
a|-2~--|-2s4~--|-2~--|-2s4~--|-------|
e|-----|-------|-----|-------|-00-00-|

(chorus)
g|---------------------------------|
d|---------------------------------|
a|---------------------------------|
e|-0-1h2-0-2h3-0-1h2-0-2h3-0-3-4-3-|

(bridge)
g|-----|-----|
d|-----|-----|
a|-----|-5~--|
e|-2~--|-----|

(outro)
g|---------------------------------|
d|---------------------------------|
a|---------------------------------|
e|-0-1h2-0-2h3-0-1h2-0-2h3-0-3-4-3-|
00:00 / 00:00
Otros videos de esta canción
Repetir
Otros videos de esta canción
Compositor no encontrado.
Colaboración y revisión:
  • Élison Duarte
11 vistas

0 comentarios

Ver todos los comentarios

¿Lograste tocar?

0 Tocaron 0 Aún no

¡Graba un video tocando Chinelas y envíanoslo!

00:00 / 00:00
OK