Cifra Club

Directors Cut

Kamikazee

Tab de bajo: Principal
Já pensou em usar uma coleção de roupas do Cifra Club? Responda as perguntas abaixo e nos ajude nessa missão! →
Album:Maharot
Date Tabbed:August,2006
Guitar Tabber:Ryan Manongdo/16/m/Montalban Rizal
              rhyzomes_0X@*(Friendster&YM)
              09229015724(Sun Cell)

 I recommend to use the Ver.1 of this song for *!!For 
your comments,just contact me...I would like to dedicate this
song to my x:,c you did'nt know how much I love you:,c ...

*:
.  - PALM MUTING
~  - LET IT RING
/\ - SLIDE

*:Standard(Normal) 

Intro:
G|-------------------------------|
D|-------------------------------| 4x
A|------7--6-4-2-000000-222222---|
E|-0-0---------------------------|
   . .

Verse 1:
Pag-mulat ng mata...
G|-----------------------------      ------|
D|----------------------------- 2x   ------|
A|-777777---------------------- Then ------|
E|---------99-77--55555-77777--      -0~---|

Repeat Intro 2x:

Verse 2:Play Verse 1
Lahat ng gusto mo...

Pre-Chorus 1:
G|--------------------------------------------|
D|--------------------------------------------|
A|-4444444--------------44444444--------------|
E|---------55-55-55-55-----------55-5-5-5-5---|
           .. .. .. ..           .. . . . .

Pre-Chorus 2:
Lumingon sandali lang...
G|-------------------------------------|
D|-------------------------------------|
A|-4444444--------------44444444--2~---|
E|---------55-55-55-55-----------------|
           .. .. .. ..

Chorus:
Sumigaw,palabas...
G|------------------------------|
D|------------------------------|
A|-777777-----------------------|
E|--------555555-999999-77777---|

Tumakbo,palayo...
G|------------------------------------------------------------------|
D|------------------------------------------------------------------| Then
A|-7777-9999-111111-14141414--12121212-11111111-12121212-14141414---|
E|------------------------------------------------------------------|

G|--------------------------------------------------|
D|--------------------------------------------------|
A|-----------4444-7777--2222-4444-6666-99-66--7~----|
E|-5555-4444----------------------------------------|

Bridge:
G|--------------------------------------------------------------------------|
D|--------------------------------------------------------------------------|
A|--------7-7-777777----------------------777777-----------------------7~---|
E|-2/12\1------------555555-999999-77777---------555555--999999-777777------|
          . .

Repeat Pre-Chorus 2:

Repeat Chorus:

Outro:
Sumigaw,palabas...
G|------------------------------------------------------------------|
D|------------------------------------------------------------------| Then
A|-7777-9999-111111-14141414--12121212-11111111-12121212-14141414---|
E|------------------------------------------------------------------|

At iiwanan na ang ala-ala mo...
G|-----------------------------------------------------|
D|-----------------------------------------------------|
A|-----------4444-7777--2222-4444-6666-99-66--777777---|
E|-5555-4444-------------------------------------------|

End...
Composición de Kamikazee
10 vistas

0 comentarios

Ver todos los comentarios

¿Lograste tocar?

0 Tocaron 0 Aún no

¡Graba un video tocando Directors Cut y envíanoslo!

00:00 / 00:00
Outros vídeos desta música
Repetir Calidad Automático
Outros vídeos desta música
00:00 / 00:00
Automático
OK