Cifra Club

Hanggang Tingin

Kamikazee

Cifrado: Principal (guitarra y guitarra eléctrica)
tono: E
(intro)

(guitarI)
|-0-0-0--0-0-0--0-0-0--0--0-0--0-0-0-0--|
|-5-4-0--7-5-0--9-7-0--10-9-0--9-7-9-7--|
|---------------------------------------|
|---------------------------------------|2x
|---------------------------------------|
|---------------------------------------|

|-0-0-0---0~----0-0-0~--0-0-0~--0-0-0~--|
|-5-7-5---4~----5-4-2~--5-4-2~--5-4-0~--|
|---------------------------------------|
|---------------------------------------|
|---------------------------------------|
|---------------------------------------|

(guitarI)
|---------------------------------------------------------------------------|
|---------------------------------------------------------------------------|
|---------------------------------------------------------------------/11-9-|
|---------/9-7-6-7-6-------/9-7-6-7-9-/11-99--/9-7-6-7-6-----9-7-6-7-9------|
|--------------------9-77-------------------------------9-77----------------|
|---------------------------------------------------------------------------|

|---------------------------------------------------------------------------|
|---------------------------------------------------------------------------|
|-----------------------------------------------------------9~--------------|
|---------/9-7-6-7-6-------/9-7-6-7-9-/11-99--/9-7-6-7-6----9~--------------|
|--------------------9-77-------------------------------9-7-7~--------------|
|---------------------------------------------------------------------------|

(guitarII)
|-----------------------------------------|
|-----------------------------------------|
|-----------------------------------------|
|-11-9--77-99-1111----11-9--77-99-1111----|
|-11-9--77-99-1111----11-9--77-99-1111----|
|-9--7--55-77-9-9-----9--7--55-77-9-9-----|

|---------------------------------0~----|
|---------------------------------0~----|
|---------------------------------1~----|
|-11-9--7-77-99-1111--11-9--77-99-2~----|
|-11-9--7-77-99-1111--11-9--77-99-2~----|
|-9--7--5-55-77-9-9---9--7--55-77-0~----|

(verse)
(guitarI)
|---------------------------------------------------------------xxx-xxxxxx-|
|---------------------------------------------------------------xxx-xxxxxx-|
|---------------------------------------------------------------xxx-xxxxxx-|
|-----------------------99999-9999----------------------99999---xxx-xxxxxx-|
|-77777-7777-99999-9999-77777-7777-77777-7777-77777-----77777---xxx-xxxxxx-|
|-55555-5555-77777-7777------------55555-5555-55555-------------xxx-xxxxxx-|

(guitarII)
|-------------------------------------------------------------
|-------------------------------------------------------------
|-99999-9999-88888-8888-1313131313-13131313-99999-9999--99999-
|-------------------------------------------------------------
|-77777-7777-66666-6666-1111111111-11111111-77777-7777--77777-
|-------------------------------------------------------------

-------------xxx-xxxxxx-|
-------------xxx-xxxxxx-|
-1313131313--xxx-xxxxxx-|
-------------xxx-xxxxxx-|
-1111111111--xxx-xxxxxx-|
-------------xxx-xxxxxx-|

(refrain)
(guitarI)
|------------------------------------------------------------------|
|------------------------------------------------------------------|
|------------------------------------------------------------------|
|-------------------99999999----------------------------99999999-7-|
|-77777777-99999999-77777777-77777777-77777777-99999999-77777777-7-|
|-55555555-77777777----------55555555-55555555-77777777----------5-|

(guitarII)
|-------------------------------------
|-------------------------------------
|-------------------------------------
|-------------------99999999----------
|-77777777-99999999-77777777-77777777-
|-55555555-77777777----------55555555-

|------------------------------------------------------------------|
|-0-9p0-7p0-5p0-4p0-5p0-7p0-5p0--0-9p0-7p0-5p0-4p0-5p0-7p0-5p0-----|
|------------------------------------------------------------------|
|------------------------------------------------------------------|
|------------------------------------------------------------------|
|------------------------------------------------------------------|

|------------------------------------------------------------------|
|-0-9p0-7p0-5p0-4p0-5p0-7p0-5p0--0-5~------------------------------|
|------------------------------------------------------------------|
|------------------------------------------------------------------|
|------------------------------------------------------------------|
|------------------------------------------------------------------|

then
(guitarI)
|----------------4-----5-4--------------|
|-5-4-0---7-5-0----7-5-----5--9-7-------|
|---------------------------------------|
|---------------------------------------|
|---------------------------------------|
|---------------------------------------|
(gtrII)
|--------------------------|
|--------------------------|
|--------------------------|
|-----------------999-6-4--|
|-777-999-111111--777-4-2--|
|-555-777-9-9-9------------|

(chorus)
|-0000000000000000-000000000000000-0000000000000000-0000000000000000-|
|-0000000000000000-000000000000000-0000000000000000-0000000000000000-|
|-9999999999999999-666666666666666-2222222222222222-2222222222222222-|
|-9999999999999999-666666666666666-2222222222222222-2222222222222222-|2x
|-7777777777777777-444444444444444-0000000000000000-0000000000000000-|
|--------------------------------------------------------------------|

(interlude)

(guitarI)
|---------------------------------------------------------------------------|
|---------------------------------------------------------------------------|
|-----------------------------------------------------------9~--------------|
|---------/9-7-6-7-6-------/9-7-6-7-9-/11-99--/9-7-6-7-6----9~--------------|
|--------------------9-77-------------------------------9-7-7~--------------|
|---------------------------------------------------------------------------|

(guitarII)
|-------------------------------|
|-------------------------------|
|-------------------------------|
|-77-99-1111---11-9--77-99-2~---|
|-77-99-1111---11-9--77-99-2~---|
|-55-77-9-9----9--7--55-77-0~---|

(verse to chorus)
(interlude)
(guitarI)
|---------------------------------------------------------------------------|
|---------------------------------------------------------------------------|
|---------------------------------------------------------------------/11-9-|
|---------/9-7-6-7-6-------/9-7-6-7-9-/11-99--/9-7-6-7-6-----9-7-6-7-9------|
|--------------------9-77-------------------------------9-77----------------|
|---------------------------------------------------------------------------|

|---------------------------------------------------------------------------|
|---------------------------------------------------------------------------|
|---------------------------------------------------------------------------|
|---------/9-7-6-7-6-------/9-7-6-7-9-/11-99--/9-7-6-7-6--------------------|
|--------------------9-77-------------------------------9-7-----------------|
|---------------------------------------------------------------------------|

(guitarII)
|-----------------------------------------|
|-----------------------------------------|
|-----------------------------------------|
|-------77-99-1111----11-9--77-99-1111----|
|-------77-99-1111----11-9--77-99-1111----|
|-------55-77-9-9-----9--7--55-77-9-9-----|

|---------------------------------------|
|---------------------------------------|
|---------------------------------------|
|-11-9--7-77-99-1111--11-9--77-99-------|
|-11-9--7-77-99-1111--11-9--77-99-------|
|-9--7--5-55-77-9-9---9--7--55-77-------|

Then
|-0~-------0~-------0~-----|
|-0~-------0~-------0~-----|
|-6~-------4~-------2~-----|
|-6~-------4~-------2~-----|
|-4~-------2~-------0~-----|
|--------------------------|
(guitarI)
|---------------------------------------------------------0~------|
|-9999999999999999999999999999999999999999999999999999----0~------|
|-9999999999999999999999999999999999999999999999999999----0~------|
|---------------------------------------------------------0~------|
|-7777777777777777777777777777777777777777777777777777------------|
|-----------------------------------------------------------------|
(guitarII)
|----------------------------------------------------------------|
|----------------------------------------------------------------|
|----------------------------------------------------------------|
|----------------------------------------------------------------|
|--2222--------2222---------2222~-----------2222-----------------|
|--0000--------0000---------0000~-----------0000-----------------|

then
(guitarI)
|---------------------------------------|
|----------9-xxxx-9-xxxx-9-xxxx-9-xxxx--|
|----------9-xxxx-9-xxxx-9-xxxx-9-xxxx--|
|----------x-xxxx-x-xxxx-x-xxxx-x-xxxx--|2x
|----------7-xxxx-7-xxxx-7-xxxx-7-xxxx--|
|-2-4-2-0-------------------------------|
(guitarII)
|---------------------------------------|
|---------------------------------------|
|---------------------------------------|
|----------2-xxxx-2-xxxx-2-xxxx-2-xxxx--|2x
|----------2-xxxx-2-xxxx-2-xxxx-2-xxxx--|
|-2-4-2-0--0-xxxx-0-xxxx-0-xxxx-0-xxxx--|

(guitarI)
|----------------------------------------------|------0----|
|----------------------------------------------|------0----|
|----------------------------------------9999/-|------9----|
|----------------------------------------9999/-|------9----|
|---------/7^------/7^------/7^------/7^-7777/-|-2-2--7----|
|-2-4-2-0--------------------------------------|-0-0-------|
                                                 * *
(guitarII)
|----------------------------------------------|------0----|
|----------------------------------------------|------0----|
|--------------------------------------------/-|------1----|
|--------------------------------------------/-|------2----|
|---------/7^-xxxx-/7^-xxxx-/7^-xxxx-/7^-2222/-|-2-2--2----|
|-2-4-2-0--------------------------------0000/-|-0-0--0----|
                                                 * *
(guitarI)
|-----------xxxx---xxxx---xxxx---xxxx----------------------------|
|-----------xxxx---xxxx---xxxx---xxxx-10-12-10-9---999-99999999--|
|---------9-xxxx-9-xxxx-9-xxxx-9-xxxx-9--9--9--9---999-99999999--|
|---------9-xxxx-9-xxxx-9-xxxx-9-xxxx----------------------------|
|---------7-xxxx-7-xxxx-7-xxxx-7-xxxx-----------777777-77777777--|
|-2-4-2-0---xxxx---xxxx---xxxx---xxxx----------------------------|
                                                ****
(guitarII)
|-----------xxxx---xxxx---xxxx---xxxx----------------------------|
|-----------xxxx---xxxx---xxxx---xxxx----------------------------|
|-----------xxxx---xxxx---xxxx---xxxx----------------------------|
|---------2-xxxx-2-xxxx-2-xxxx-2-xxxx---------2----222-22222222--|
|---------2-xxxx-2-xxxx-2-xxxx-2-xxxx---------2-222222-22222222--|
|-2-4-2-0-0-xxxx-0-xxxx-0-xxxx-0-xxxx-2-4-2-0-0-000000-00000000--|
                                                ****
Then
(guitarI)
|----------------4-----5-4--------------|
|-5-4-0---7-5-0----7-5-----5--9-7-------|
|---------------------------------------|
|---------------------------------------|
|---------------------------------------|
|---------------------------------------|
(guitarII)
|--------------------------|
|--------------------------|
|--------------------------|
|-----------------999-6-4--|
|-777-999-111111--777-4-2--|
|-555-777-9-9-9------------|

(chorus)

(guitarI)
|---------------------------------------------------------------------------|
|---------------------------------------------------------------------------|
|---------------------------------------------------------------------/11-9-|
|---------/9-7-6-7-6-------/9-7-6-7-9-/11-99--/9-7-6-7-6-----9-7-6-7-9------|
|--------------------9-77-------------------------------9-77----------------|
|---------------------------------------------------------------------------|

|--------------------------------------------------------0~--------------|
|--------------------------------------------------------0~--------------|
|--------------------------------------------------------9~--------------|
|---------/9-7-6-7-6-------/9-7-6-7-9-/11-99--/9-7-6-7~--6~--------------|
|--------------------9-77--------------------------------7~--------------|
|------------------------------------------------------------------------|

(guitarII)
(guitarII)
|-----------------------------------------|
|-----------------------------------------|
|-----------------------------------------|
|-11-9--77-99-1111----11-9--77-99-1111----|
|-11-9--77-99-1111----11-9--77-99-1111----|
|-9--7--55-77-9-9-----9--7--55-77-9-9-----|

|---------------------------------0~----|
|---------------------------------0~----|
|---------------------------------1~----|
|-11-9--77-99-1111----11-9--77-99-2~----|
|-11-9--77-99-1111----11-9--77-99-2~----|
|-9--7--55-77-9-9-----9--7--55-77-0~----|
00:00 / 00:00
Otros videos de esta canción
Repetir
Otros videos de esta canción
Compositor no encontrado.
Colaboración y revisión:
  • Élison Duarte
9 vistas
    • ½ Tono
    • A
    • Bb
    • B
    • C
    • Db
    • D
    • Eb
    • E
    • F
    • F#
    • G
    • Ab
  • Agregar a la lista

    0 comentarios

    Ver todos los comentarios

    ¿Lograste tocar?

    0 Tocaron 0 Aún no

    ¡Graba un video tocando Hanggang Tingin y envíanoslo!

    00:00 / 00:00
    OK