Cifra Club

Hot Mami

Kamikazee

Cifrado: Principal (guitarra y guitarra eléctrica)
Já pensou em usar uma coleção de roupas do Cifra Club? Responda as perguntas abaixo e nos ajude nessa missão! →
tono: A
(intro)

(guitar i& ii)
|---------------------------------------------------------------------|
|-9~~~~~~~~~~~~~~~~~~~~~~~~~~~~~~~~~~~~~~~~~~~~~~~~~~~~~~~~~~~~~~~~---|
|-9~~~~~~~~~~~~~~~~~~~~~~~~~~~~~~~~~~~~~~~~~~~~~~~~~~~~~~~~~~~~~~~~---|
|---------------------------------------------------------------------|
|---------------------------------------------------------------------|
|---------------------------------------------------------------------|
(bass)
|---------------------------------------------------------------------|
|---------------------------------------------------------------------|
|---------------------------------------------------------------------|
|-0000000000000333-0000000000000333-0000000000000333-0000000000000333-|
2.

(bass)
|---------------------------------------------------------------------|
|---------------------------------------------------------------------|
|---------------------------------------------------------------------|
|-0000000000000333-0000000000000333-0000000000000333-0000000000000333-|
(guitar i)
|---------------------------------------------------------------------|
|-99-9-7-999-7----99-9-7-999-7-----99-9-7-999-7----99-9-7-999-7-------|
|-99-9-9-999-9----99-9-9-999-9-----99-9-9-999-9----99-9-9-999-9-------|
|---------------------------------------------------------------------|
|---------------------------------------------------------------------|
|---------------------------------------------------------------------|
(guitar ii)
|---------------------------------------------------------------------|
|---------------------------------------------------------------------|
|-99-9-7-999-7----99-9-7-999-7-----99-9-7-999-7----99-9-7-999-7-------|
|-99-9-9-999-9----99-9-9-999-9-----99-9-9-999-9----99-9-9-999-9-------|
|---------------------------------------------------------------------|
|---------------------------------------------------------------------|
3.
(guitar i)
|---------------------------------------------------------------------|
|-99-9-7-999-7----99-9-7-999-7-----99-9-7-999-7----9------------------|
|-99-9-9-999-9----99-9-9-999-9-----99-9-9-999-9----9------------------|
|---------------------------------------------------------------------|
|---------------------------------------------------------------------|
|---------------------------------------------------------------------|
(guitar ii)
|----------12--12-----------12--12----------12--12--------------------|
|----------15^-15^----------15^-15^---------15^-15^-------------------|
|---------------------------------------------------------------------|
|---------------------------------------------------------------------|
|---------------------------------------------------------------------|
|---------------------------------------------------------------------|

4.
(guitars)
|---------------------------------------------------------------------|
|---------------------------------------------------------------------|
|---------------------------------------------------------------------|
|---------------------------------------------------------------------|2x
|---77^--77^-77^--7^-------------------77^--77^-77^--7^---------------|
|-0----0----0---0---0--7-6-5^--------0----0----0---0---0--7-6-5^------|

then...
(guitar i)
---------------------|
--99-9-7-999-7-------|
--99-9-7-999-7-------|
---------------------|
---------------------|
---------------------|
(verse)

(guitar i)
|---------------------------------------------------------------------|
|-99-9-7-999-7----99-9-7-999-7-----99-9-7-999-7----99-9-7-999-7-------|
|-99-9-9-999-9----99-9-9-999-9-----99-9-9-999-9----99-9-9-999-9-------|
|---------------------------------------------------------------------|
|---------------------------------------------------------------------|
|---------------------------------------------------------------------|
(guitar ii)
|---------------------------------------------------------------------|
|---------------------------------------------------------------------|
|-99-9-7-999-7----99-9-7-999-7-----99-9-7-999-7----99-9-7-999-7-------|
|-99-9-9-999-9----99-9-9-999-9-----99-9-9-999-9----99-9-9-999-9-------|
|---------------------------------------------------------------------|
|---------------------------------------------------------------------|

(guitar ii)  (1:20)
|---------------------------------------------------------------------|
|------99-1010-10-9-9-12121212-----99-1010-10-9-9-12121212------------|
|------99-9-9--9--9-9-9-9-9-9------99-9-9--9--9-9-9-9-9-9-------------|
|---------------------------------------------------------------------|
|-/7\-----------------------------------------------------------------|
|---------------------------------------------------------------------|

|---------------------------------------------------------------------|
|------99-1010-10-9-9-12121212-----99-1010-10-9-9-12121212------------|
|------99-9-9--9--9-9-9-9-9-9------99-9-9--9--9-9-9-9-9-9-------------|
|---------------------------------------------------------------------|
|---------------------------------------------------------------------|
|---------------------------------------------------------------------|
(refrain)
1.
(guitars)
|-------------------------------------------------------------------------|
|-------------------------------------------------------------------------|
|-------------------------------------------------------------------------|
|-------------------------------------------------------------------------|
|-77--89-xx-98-xx-87-xxxx-77--89-xx-98-xx-87-xxxx-77--89-xx-98-xx-87-xxxx-|
|-55--67-xx-76-xx-65-xxxx-55--67-xx-76-xx-65-xxxx-55--67-xx-76-xx-65-xxxx-|
2.
(guitar i)
|---------------------------------------------------------------------|
|---------------------------------------------------------------------|
|---------------------------------------------------------------------|
|-7-6-4444444444444---7-6-4444444444444------7-6-4444444444444--------|
|-5-4-2222222222222---5-4-2222222222222------5-4-2222222222222--------|
|---------------------------------------------------------------------|

(guitar ii)
|---------------------------------------------------------------------|
|-----5-------5--------5-------5-------5------5-----5--5--------------|
|--7--7^---7--7^----7--7^---7--7^---7--7^--7--7^--7-7^-7~(3x)---------|
|---------------------------------------------------------------------|
|---------------------------------------------------------------------|
|---------------------------------------------------------------------|

then
|---------------------------------------------------------------------|
|---------------------------------------------------------------------|
|---------------------------------------------------------------------|
|-7-6-4-------7-6-4---------7-6-4-------7-6-4-------------------------|
|-5-4-2-------5-4-2---------5-4-2-------5-4-2-------5-4-2-------------|
|---------------------------------------------------3-2-0-------------|
(chorus)
|--------------------------------------|
|--------------------------------------|
|--------7-77-6-66----------7-77-6-66--|
|-222222-7-77-6-66---222222-7-77-6-66--|2x
|-222222-5-55-4-44---222222-5-55-4-44--|
|-000000-------------000000------------|

|--------------------------------------|
|--------------------------------------|
|-4---------4444-7----------7777-------|
|-44444444444444-777777777777777-------|
|-22222222222222-555555555555555-------|
|--------------------------------------|
   *********      **********

(verse / chorus)
(interude)
(guitar)
|---------------------------------------------------------------------|
|---------------------------------------------------------------------|
|---------------------------------------------------------------------|
|---------------------------------------------------------------------|2x
|---77^--77^-77^--7^-------------------77^--77^-77^--7^---------------|
|-0----0----0---0---0--7-6-5^--------0----0----0---0---0--7-6-5^------|

then
|-0~------------------------------------------------------------------|
|-0~------------------------------------------------------------------|
|-4~------------------------------------------------------------------|
|-4~------------------------------------------------------------------|
|-2~------------------------------------------------------------------|
|---------------------------------------------------------------------|

 (guitar I / guitar II)  (strum E chord)
|--------------------------------------|
|-1010-9~-------1010-9~--109-10/12~----|
|-9-9--9~-77-9~-9-9--9~--9-9-----------|
|---------99-9~------------------------|
|--------------------------------------|
|--------------------------------------|

|--------------------------------------|
|-1010-9~-------1010-9~----------------|
|-9-9--9~-77-9~-9-9--9~----------------|
|---------99-9~------------------------|2x
|--------------------------------------|
|--------------------------------------|

then
|------------------------------------------------------|
|------------------------------------------------------|
|-9-7-9-xxxx-9-7-9-xxxx-9-7-9-xxxx-9-7-9-xxxx----------|
|-9-7-9-xxxx-9-7-9-xxxx-9-7-9-xxxx-9-7-9-xxxx------5~--|
|-7-5-7-xxxx-7-5-7-xxxx-7-5-7-xxxx-7-5-7-xxxx-22-2-5~--|
|---------------------------------------------00-0-3~--|
                                              ** *
|---------------------------------------------------------------------------|
|---------------------------------------------------------------------------|
|-9-7-9-xxxx-9-7-9-xxxx-9-7-9-xxxx-9-7-9-xxxx-------------------------------|
|-9-7-9-xxxx-9-7-9-xxxx-9-7-9-xxxx-9-7-9-xxxx------5~------5~------5~-5-6-7-|
|-7-5-7-xxxx-7-5-7-xxxx-7-5-7-xxxx-7-5-7-xxxx-22-2-5~-22-2-5~-22-2-5~-5-6-7-|
|---------------------------------------------00-0-3~-00-0-3~-00-0-3~-3-4-5-|
                                              ** *    ** *    ** *
(drum beats)
(chorus)
(intro)

(do til' end)
|---------------------------------------------------------------------|
|---------------------------------------------------------------------|
|---------------------------------------------------------------------|
|---------------------------------------------------------------------|
|---77^--77^-77^--7^-------------------77^--77^-77^--7^---------------|
|-0----0----0---0---0--7-6-5^--------0----0----0---0---0--7-6-5^------|
Compositor não encontrado.
Colaboración y revisión:
  • Élison Duarte
28 vistas
    • ½ Tono
    • A
    • Bb
    • B
    • C
    • Db
    • D
    • Eb
    • E
    • F
    • F#
    • G
    • Ab
  • Agregar a la lista

    0 comentarios

    Ver todos los comentarios

    ¿Lograste tocar?

    0 Tocaron 0 Aún no

    ¡Graba un video tocando Hot Mami y envíanoslo!

    00:00 / 00:00
    Outros vídeos desta música
    Repetir Calidad Automático
    Outros vídeos desta música
    00:00 / 00:00
    Automático
    OK