Cifra Club

Ikaw

Kamikazee

Cifrado: Principal (guitarra y guitarra eléctrica)
Já pensou em usar uma coleção de roupas do Cifra Club? Responda as perguntas abaixo e nos ajude nessa missão! →
tono: A
(guitar I  - Jomal)
(guitar II - Led)

(intro)
1.
(guitar I&II)
|--------------------------------------------|
|--------------------------------------------|
|--------------------------------------------|
|-xx-xx-xx-xx-xx-xx-xx-xx-xx-xx-xx-xx-xx-xx--|
|-xx-xx-xx-xx-xx-xx-xx-xx-xx-xx-xx-xx-xx-xx--|
|-xx-xx-xx-xx-xx-xx-xx-xx-xx-xx-xx-xx-xx-xx--|
2.
(guitar I)
|-------------------------------|
|-------------------------------|
|-------------------------------|
|-------------------------------|
|-------2--------------2--------|
|-0-2h4---4-2h4--0-2h4---4-2h4--|
(guitar II)
|-------------------------------|
|-------------------------------|
|-------------------------------|
|-------------------------------|
|----------------------2--------|
|----------------0-2h4---4-2h4--|
3.
(guitar I)
|--------------------------------------------------------|
|--------------------------------------------------------|
|-9999------6666-----------9999-8888-6666-44-4-4-4-------|
|-9999------6666--7--11-9--------------------------------|
|-7777-7777-4444--7--11-9--7777-6666-4444-22-2-2-2-------|
|------5555-------5--9--7--------------------------------|
(guitar II)
|-----------------------------------------------------------|
|-----------------------------------------------------------|
|-9999-8888-13131313-9--13-11-9999------6666----------------|
|-----------------------------9999-7777-6666--99x-9x-9x-9x--|
|-7777-6666-11111111-7--11-9--7777-7777-4444--99x-9x-9x-9x--|
|----------------------------------5555-------77x-7x-7x-7x--|

(verse)
a.
(guitar I)
|-------------------------------------------------------------------|
|-------------------------------------------------------------------|
|-------------------------------------------------------------------|
|--------2----------------2---------------2---------------2---------|
|----2-4---4-2-4---00-2-4---4-2-4--44-2-4---4-2-4--22-2-4---4-2-4---|
|-00----------------------------------------------------------------|
  ** * *   * * *   ** * *   * * *  ** * *   * * *  ** * *

b.
(guitar I)
|-------------------------------------------------------------------|
|-------------------------------------------------------------------|
|-------------------------------------------------------------------|
|--------2----------------2---------------2---------------2---------|
|----2-4---4-2-4---00-2-4---4-2-4--44-2-4---4-2-4--22-2-4---4-2-4---|
|-00----------------------------------------------------------------|
  ** * *   * * *   ** * *   * * *  ** * *   * * *  ** * *

|-------------------------------------------------------------------|
|-------------------------------------------------------------------|
|-------------------------------------------------------------------|
|--------2----------------2---------------2---------------2---------|
|----2-4---4-2-4---00-2-4---4-2-4--44-2-4---4-2-4--22-2-4---4-2-4---|
|-00----------------------------------------------------------------|
  ** * *   * * *   ** * *   * * *  ** * *   * * *  ** * *

(guitar II)
|-------------------------------------|
|-------------------------------------|
|-------------------------------------|
|-------------------66666666----------|
|-22222222-77777777-44444444-99999999-|
|-00000000-55555555----------77777777-|
  ******** ******** ******** ********
|-------------------------------------|
|-------------------------------------|
|-------------------------------------|
|-------------------66666666----------|
|-22222222-77777777-44444444-99999999-|
|-00000000-55555555----------77777777-|
  ******** ******** ********

(refrain)
(guitar I)
|-------------------------------------|
|-------------------------------------|
|-99999--99999-----99999---99999------|
|-------------------------------------|2x
|-77777--77777-----77777---77777------|
|-------------------------------------|
(guitar II)
|-------------------------------------|
|-------------------------------------|
|-99999------------66666--------------|
|-99999---77777----66666----99999-----|2x
|-77777---77777----44444----99999-----|
|---------55555-------------77777-----|

(guitar I)
|-------------------------------|
|-------------------------------|
|-------------------------------|
|-------------------------------|
|-------2-----------------------|
|-0-2h4---4-2h4-----------------|

(chorus)
(guitar I)
|--------------------------------------------------------|
|--------------------------------------------------------|
|-9999------6666-----------9999-8888-6666-44-4-4-4-------|
|-9999------6666--7--11-9--------------------------------|
|-7777-7777-4444--7--11-9--7777-6666-4444-22-2-2-2-------|
|------5555-------5--9--7--------------------------------|

|----------------------------------------------|
|-9---9--10--12----12--12--9h10p9--9h10p9------|
|---9---9---9--9-----9---9--------9------------|2x
|----------------------------------------------|
|----------------------------------------------|
|----------------------------------------------|

(guitar II)
|------------------------------------------------|
|------------------------------------------------|
|-9999------6666-----------9999------6666--------|
|-9999-7777-6666-7--11-9---9999-7777-6666-9999---|
|-7777-7777-4444-7--11-9---7777-7777-4444-9999---|
|------5555------5--9--7--------5555------7777---|

|--------------------------------------------------------|
|--------------------------------------------------------|
|-9999------6666-----------9999------6666----------------|
|-9999-7777-6666-7--11-9---9999-7777-6666-777-9x-9x-9x---|
|-7777-7777-4444-7--11-9---7777-7777-4444-777-9x-9x-9x---|
|------5555------5--9--7--------5555------555-7x-7x-7x---|

(guitar I)
|-------------------------------|
|-------------------------------|
|-------------------------------|
|-------------------------------|
|-------2-----------------6-6---|
|-0-2h4---4-2h4-00-2h4-0--4-4---|

(verse b)
(refrain)
(chorus)

(guitar I)
|----------------------------------------------------------------|
|-101010-12~-----------------------------------------------------|
|-9-9-9--9~-------99999999-999999999999999--9999999999999999-----|
|------------/---------------------------------------------------|
|------------/----77777777-777777777777777--7777777777777777-----|
|------------/---------------------------------------------------|

(guitar II)
|----------------------------------------------------------|
|----------------------------------------------------------|
|-----------------99999999---------------------------------|
|-9-9-9--2~--/---------------------------------------------|
|-9-9-9--2~--/----77777777-222222222222222-----------------|
|-7-7-7--0~--/-------------000000000000000-----------------|
                           ***************
then
---------------|
---------------|
---------------|
----99---------|
-77-77-99-66-7-|
-55----77-44-5-|

(solo)
(guitar I)
|---------------------------------|----------------------------------------|
|-0-7h9-0-5h7-0-4h5-0-7h9-0-12h10-|-0-14h12-0-12p10-0-9h10p9-0-5p0-4h5-4p0-|
|---------------------------------|----------------------------------------|
|---------------------------------|----------------------------------------|
|---------------------------------|----------------------------------------|
|---------------------------------|----------------------------------------|

|---------------------------------|----------------------------------------|
|-0-7h9-0-5h7-0-4h5-0-7h9-0-12h10-|-0-10p9-0-7p5-0-14h12-0-10p9-0-7h9-7p5--|
|---------------------------------|----------------------------------------|
|---------------------------------|----------------------------------------|
|---------------------------------|----------------------------------------|
|---------------------------------|----------------------------------------|

|---------------------------------|----------------------------------------|
|-0-7h9-0-5h7-0-4h5-0-7h9-0-12h10-|-0-14h12-0-12p10-0-9h10p9-0-5p0-4h5-4p0-|
|---------------------------------|----------------------------------------|
|---------------------------------|----------------------------------------|
|---------------------------------|----------------------------------------|
|---------------------------------|----------------------------------------|
(guitar II)
|-----------------------------------------------------------|
|-----------------------------------------------------------|
|----------66----66-----------------------------------------|
|-22222222-66-77-66-77-9-7---22222222-77-22-99-22-7-2-------|
|-22222222-44-77-44-77-9-7---22222222-77-22-99-22-7-2-------|
|-00000000----55----55-7-5---00000000-55-00-77-00-5-0-------|

|---------------------------|
|---------------------------|
|----------66----66---------|
|-22222222-66-77-66-77-9-9--|
|-22222222-44-77-44-77-9-9--|
|-00000000----55----55-7-7--|

then
(guitar I)
|----------------------------------------------------|
|-1414-1212-99-77-7h9p7----1414-1212-99-77-7h9p7-----|
|-1313-1313-99-88-8-----9--1313-1313-99-88-8-----9---|
|----------------------------------------------------|
|----------------------------------------------------|
|----------------------------------------------------|

|------------------1212h14-1212h14-1212h14-1212h12--12121212--|
|-1414-1212-99-77--1212----1212----1212----1212-----12121212--|
|-1313-1313-99-88---------------------------------------------|
|-------------------------------------------------------------|
|-------------------------------------------------------------|
|-------------------------------------------------------------|
(guitar II)
|------------------------------------------|
|------------------------------------------|
|------------------------------------------|
|---1111-99-66----------1111-99-66---------|
|---1111-99-66----------1111-99-66---------|
|---9-9--77-44-2h4-2p0--9-9--77-44-2h4-2p0-|

|---------------------------------------|
|---------------------------------------|
|---------------------------------------|
|-1111-99-66---22---22-22-22-22-2-2-----|
|-1111-99-66---22---22-22-22-22-2-2-----|
|-9-9--77-44---00---00-00-00-00-0-0-----|

then
(guitar I)
|-------------------------------------------------------------------|
|-------------------------------------------------------------------|
|-------------------------------------------------------------------|
|--------2----------------2---------------2---------------2---------|
|----2-4---4-2-4------2-4---4-2-4-----2-4---4-2-4-----2-4---4-2-4---|
|-00---------------00--------------00--------------00---------------|
  ** * *   * * *   ** * *   * * *  ** * *   * * *  ** * *   * * *

|-------------------------------------------------------------------|
|-------------------------------------------------------------------|
|-------------------------------------------------------------------|
|--------2----------------2---------------2-------------------------|
|----2-4---4-2-4------2-4---4-2-4-----2-4---4-2-4-------------------|
|-00---------------00--------------00--------------00-0-0--12/0-----|
  ** * *   * * *   ** * *   * * *  ** * *   * * *  ** * *
(bridge)

(guitar I)
|-------------------------------------|
|-------------------------------------|
|-------------------------------------|
|-------------------------------------|
|-22222222-77777777-447477x7---7-77x7-|
|-00000000-55555555----------77-7-----|
  ******** ******** ** *     ** ***

(guitar II)
|-------------------------------------------------------------------------|
|-------------------------------------------------------------------------|
|-------------------------------------------------------------------------|
|-99999999-77777777-66666666----------99999999-77777777-66666666----------|
|----------------------------99999999---------------------------99999999--|
|-------------------------------------------------------------------------|
  ******** ******** ******** ********

(guitar I)
|-------------------------------------|
|-------------------------------------|
|-------------------------------------|
|-------------------------------------|
|-22222222-77777777-447477x7---7-77x7-|
|-00000000-55555555----------77-7-----|
                    ** *     ** *
|-------------------------------------|
|-------------------------------------|
|-------------------------------------|
|-------------------66666666----------|
|-22222222-77777777-44444444-99999999-|
|-00000000-55555555----------77777777-|
  ******** ********
(guitar II)
|-------------------------------------|
|-------------------------------------|
|-------------------------------------|
|-------------------66666666----------|
|-22222222-77777777-44444444-99999999-|
|-00000000-55555555----------77777777-|
  ******** ******** ******** ********
|-------------------------------------|
|-------------------------------------|
|-------------------------------------|
|-------------------66666666----------|
|-22222222-77777777-44444444-99999999-|
|-00000000-55555555----------77777777-|
  ******** ********

then
(guitar I)
|-------------------------------------|
|-------------------------------------|
|-9999-------------6666---------------|
|-9999----7777-----6666-----9999------|2x
|-7777----7777-----4444-----9999------|
|---------5555--------------7777------|

|-------------------------------------|
|-9999--13131313--14141414-16161616---|
|-------------------------------------|2x
|-7777--11111111--12121212-14141414---|
|-------------------------------------|

(guitar II)
|-------------------------------------|
|-------------------------------------|
|-9999-------------6666---------------|
|-9999----7777-----6666-----9999------|4x
|-7777----7777-----4444-----9999------|
|---------5555--------------7777------|

(chorus)

(guitar I)
|--------------------------------------------------------|
|--------------------------------------------------------|
|-9999------6666-----------9999-8888-6666-44-4-4-4-------|
|-9999------6666--7--11-9--------------------------------|
|-7777-7777-4444--7--11-9--7777-6666-4444-22-2-2-2-------|
|------5555-------5--9--7--------------------------------|

|----------------------------------------------|
|-9---9--10--12----12--12--9h10p9--9h10p9------|
|---9---9---9--9-----9---9--------9------------|
|----------------------------------------------|
|----------------------------------------------|
|----------------------------------------------|

|--------------------------------------------------------|
|-9---9--10--12--12/14-12-10h12-10/9--9h10p9--9h10p9-----|
|---9---9---9--9-----------------------------9------9----|
|--------------------------------------------------------|
|--------------------------------------------------------|
|--------------------------------------------------------|

(guitar II do chorus)

(guitar I)
|-------------------------------------------------------|
|-99999-1010101010-1212121212--10-xx-10-xx-10-xx--------|
|-99999-9-9-9-9-9--9-9-9-9-9---9--xx-9--xx--9-xx--------|
|---------------------------------xx----xx---xx---------|
|-77777-7-7-7-7-7-----------------xx----xx---xx---------|
|-------------------------------------------------------|

|-------------------------------------------------------|
|-99999-1010101010-1212121212--12-12-12-12-12-12--------|
|-99999-9-9-9-9-9--9-9-9-9-9---9--9--9--9--9--9---------|
|-------------------------------------------------------|
|-77777-7-7-7-7-7---------------------------------------|
|-------------------------------------------------------|

(guitar II)
|-------------------------------------|
|-------------------------------------|
|-99999------------66666--------------|
|-99999---77777----66666----9xx9xx9xx-|
|-77777---77777----44444----9xx9xx9xx-|
|---------55555-------------700700700-|
                             ** ** **
|-------------------------------------|
|-------------------------------------|
|-99999------------66666--------------|
|-99999---77777----66666----999999999-|
|-77777---77777----44444----999999999-|
|---------55555-------------777777777-|
Composición de Kamikazee
Colaboración y revisión:
  • Élison Duarte
3 vistas
    • ½ Tono
    • A
    • Bb
    • B
    • C
    • Db
    • D
    • Eb
    • E
    • F
    • F#
    • G
    • Ab
  • Agregar a la lista

    0 comentarios

    Ver todos los comentarios

    ¿Lograste tocar?

    0 Tocaron 0 Aún no

    ¡Graba un video tocando Ikaw y envíanoslo!

    00:00 / 00:00
    Outros vídeos desta música
    Repetir Calidad Automático
    Outros vídeos desta música
    00:00 / 00:00
    Automático
    OK