Cifra Club

Mmm Sarap

Kamikazee

Tab de bajo: Principal
(intro)
----------------------------------------------------------|
----------------------------------------------------------|
----77777777777-------------------------------------------|
----------------------------------------------------------|

----------------------------------------------------------|
------------------------------------------------------(2x)|
----------------4-44-44-444-------------5555--7777--------|
----5-55-55-555-------------2-22-22-222-------------------|

(pre-verse)
----------------------------------------------------------|
------------------------------------------------------(2x)|
----------7-5-4---4-5-4-5---5-7-7/9-7---5h7-5h7-5---------|
----5---5-------------------------------------------------|

(verse 1)
----------------------------------------------------------|
------------------------------------------------------(2x)|
----------7-5-4---4-5-4-5---5-7-7/9-7---5h7-5h7-5---------|
----5---5-------------------------------------------------|

(interlude)
----------------------------------------------------------|
------------------------------------------------------(2x)|
----------7-5-4---4-5-4-5---5-7-7/9-7---5h7-5h7-5---------|
----5---5-------------------------------------------------|

(verse 2)
----------------------------------------------------------|
------------------------------------------------------(2x)|
----------7-5-4---4-5-4-5---5-7-7/9-7---5h7-5h7-5---------|
----5---5-------------------------------------------------|

(chorus)
----------------------------------------------------------|
------------------------------------------------------(4x)|
----------------4-44-44-444-------------5555--7777--------|
----5-55-55-555-------------2-22-22-222-------------------|
(pre-verse)
----------------------------------------------------------|
------------------------------------------------------(2x)|
----------7-5-4---4-5-4-5---5-7-7/9-7---5h7-5h7-5---------|
----5---5-------------------------------------------------|

(verse 3)
----------------------------------------------------------|
----------------------------------------------------------|
----------7-5-4---4-5-4-5---5-7-7/9-7---5h7-5h7-5---------|
----5---5-------------------------------------------------|

----------------------------------------------------------|
----------------------------------------------------------|
----------7-5-4---4-5-4-5---5-7-7/9--7-7-7-7-7-7----------|
----5---5-------------------------------------------------|

----------------------------------------------------------|
------------------------------------------------------(2x)|
----------7-5-4---4-5-4-5---5-7-7/9-7---5h7-5h7-5---------|
----5---5-------------------------------------------------|

(chorus)
----------------------------------------------------------|
------------------------------------------------------(4x)|
----------------4-44-44-444-------------5555--7777--------|
----5-55-55-555-------------2-22-22-222-------------------|

solo part/ bridge)
----------------------------------------------------------|
----------------------------------------------------------|
----------7-5-4---4-5-4-5---5-7-7/9-7---5h7-5h7-5---------|
----5---5-------------------------------------------------|

----------------------------------------------------------|
----------------------------------------------------------|
--------------4---4-----5---5-----7---7-------------------|
----5---5-------------------------------------------------|
(repeat many times til fade)

(chorus)
----------------------------------------------------------|
------------------------------------------------------(4x)|
----------------4-44-44-444-------------5555--7777--------|
----5-55-55-555-------------2-22-22-222-------------------|

(outro)
----------------------------------------------------------|
----------------------------------------------------------|
----------------4444--4444--------------555--777----------|
----5555--5555--------------2222--2222--------------------|

(end with)
----------------------------------------------------------|
----------------------------------------------------------|
----------7-5-4---4-5-4-5---5-7-7/9-7---5h7-5h7-5---------|
----5---5------------------------------------------5------|
00:00 / 00:00
Otros videos de esta canción
Repetir
Otros videos de esta canción
Compositor no encontrado.
Colaboración y revisión:
  • Élison Duarte
11 vistas

0 comentarios

Ver todos los comentarios

¿Lograste tocar?

0 Tocaron 0 Aún no

¡Graba un video tocando Mmm Sarap y envíanoslo!

00:00 / 00:00
OK