Cifra Club

Pepeng Maghapon

Kamikazee

Tab de bajo: Principal
Já pensou em usar uma coleção de roupas do Cifra Club? Responda as perguntas abaixo e nos ajude nessa missão! →
Tabbed by: jimmyjon *
*

itong kantang toh ay talaga nga namang napakanakakatawa pag una mong narinig. galing 


Base:

G||-------------------------|
D||-----77-------77----54---|
A||-5------55---------5-----|
E||-------------------------|

G||-------------------------|
D||-----99-------99----76---|
A||-7------77---------7-----|
E||-------------------------|

G||-------------------------|
D||-----77-------77----54---|
A||-5------55---------5-----|
E||-------------------------|

G||-------------------------|
D||-------------------------|
A||----1010-----1010---87---|
E||-8--------88-------8-----|


repeat until the end of the world este the song!

...:::J ...:::I ...:::M ...:::M ...:::Y ...:::J ...:::O ...:::N ...:::!
...:::R ...:::O ...:::C ...:::K ...:::  ...:::O ...:::N ...:::!
Composición de Kamikazee
15 vistas

0 comentarios

Ver todos los comentarios

¿Lograste tocar?

0 Tocaron 0 Aún no

¡Graba un video tocando Pepeng Maghapon y envíanoslo!

00:00 / 00:00
Outros vídeos desta música
Repetir Calidad Automático
Outros vídeos desta música
00:00 / 00:00
Automático
OK