Cifra Club

Seksi Seksi

Kamikazee

Tab de bajo: Principal
Já pensou em usar uma coleção de roupas do Cifra Club? Responda as perguntas abaixo e nos ajude nessa missão! →
Intro:
G|------------------------------------------------------------------------------------|
D|------------------------------------------------------------------------------------|
A|-------------------------------------------------------------------3333-4444--------|
E|-3-3-4-5---3-3-4-5---3-3-4-5-3-3-4-5---3-3-4-5-3-3-4-5------------------------------|
Intro Part 2:
G|---------------------------        -------------------------------------|
D|------------------------------        (x3)   ---------------------------|
A|-------------5-3-5-4---2-5~----  Then -------33-4444--------------------|
E|-0-0-3-4-5----------------------         ---00----------3333------------|
Verse 1:
G|---------------------------------------------|
D|----------------------------------|-=-=-=----|x3
A|------------5-4------------------------------|
E|--3-3-4-5------5-4---3-3-4-5-----------------|
Refrain:
G|--------------------------------------------|
D|--------------------------------------------|
A|----------------------3333-4444-------------|
E|-3-3-4-5---3-3-4-5--------------------------|
Chorus:
G|---------------------------        -------------------------------------|
D|------------------------------        (x3)   ---------------------------|
A|-------------5-3-5-4---2-5~----  Then -------33-4444--------------------|
E|-0-0-3-4-5----------------------         ---00----------3333------------|
Verse 2:
G|---------------------------------------------|
D|----------------------------------|-=-=-=----|x3
A|------------5-4------------------------------|
E|--3-3-4-5------5-4---3-3-4-5-----------------|
Refrain:
G|--------------------------------------------|
D|--------------------------------------------|
A|----------------------3333-4444-------------|
E|-3-3-4-5---3-3-4-5--------------------------|
Chorus:
G|---------------------------        -------------------------------------|
D|------------------------------        (x3)   ---------------------------|
A|-------------5-3-5-4---2-5~----  Then -------33-4444--------------------|
E|-0-0-3-4-5----------------------         ---00----------3333------------|
Bridge:
G|---------------------------------|
D|----------------------|-=-=-=----|x3
A|----------------3-5--------------|
E|-5-3-2-3-3-2---------------------|

G|-----------------------------------|
D|-----------------------------------|
A|---------------------33-55---------|
E|-5555-3333-2222--------5~----------|
After Adlib:
G|-----------------------|
D|------------|-=-=-=----|x4
A|-----------------------|
E|-3-3-4-5---------------|
Refrain:
G|--------------------------------------------|
D|--------------------------------------------|
A|----------------------3333-4444-------------|
E|-3-3-4-5---3-3-4-5--------------------------|
Chorus:
G|---------------------------        -------------------------------------|
D|------------------------------        (x3)   ---------------------------|
A|-------------5-3-5-4---2-5~----  Then -------33-4444--------------------|
E|-0-0-3-4-5----------------------         ---00----------3333------------|

d po ako sure dyan...hmm.....89% lng cguro? hehehe
add nyo po ako sa friendster (*)
Composición de Kamikazee
17 vistas

0 comentarios

Ver todos los comentarios

¿Lograste tocar?

0 Tocaron 0 Aún no

¡Graba un video tocando Seksi Seksi y envíanoslo!

00:00 / 00:00
Outros vídeos desta música
Repetir Calidad Automático
Outros vídeos desta música
00:00 / 00:00
Automático
OK