Cifra Club

Sobrang Init

Kamikazee

Tab de bajo: Principal
Já pensou em usar uma coleção de roupas do Cifra Club? Responda as perguntas abaixo e nos ajude nessa missão! →
para sa lahat ng bahista sa Pilipinas


INTRO
[--------------------------------------]
[--------------------------------------]
[-5-4---------5-4--------5-4-----------]  *REPEAT  UNTIL CHORUS
[ -----33333-----33333--------33333----]


CHORUS
[--------------------------------------]
[--------------------------------------]
[-3-5-6-3-6-5-3-5-3-5-3-6-5-3-5--------]   REPEAT 4X THEN
[--------------------------------------]

[---------------------------------------]
[---------------------------------------]
[---------------------------------------]
[-3-3-3-3-3-3-3-3-3-3-3-3-3-3-3---------]

VERSE 2
(REPEAT INTRO TAB)
THEN
[-----------------------]
[-----------------------]
[-5-4—-5-4--5-4---------]  REPEAT 7X THEN
[-----3----3-----3------]

[----------------------]
[----------------------]
[----3-5---------------]
[5-5-------------------]

CHORUS
(REPEAT CHORUS TABEXCEPT LAST PART)
[---------------------]
[---------------------]
[---------------------] SLIGHTLY FASTER
[-3-3-3-3-------------]

-AFTER CHORUS PART
[-----------------]
[-----------------]
[-----------------]
[-3------3------3-] THEN

[-------------]
[-------------]
[--5-3-5-3----]
[-3---3-------]   REPEAT MANY TIMES THEN


[----------]
[----------]
[3-3-3-3---]
[-5-5-5-5--]  REPEAT MANY TIMES THEN

[------------------]
[------------------] ] REPEAT THEN
[3-5—5-5-5---------]
[----3-3—3-3-------]

[--------]
[--------]
[-3-5-7-9]  REPEAT 3X THEN
[--------]

[--------------]
[--------------]
[-3-5-7-9-10---]
[--------------]

-CHORUS
(REPEAT CHORUS TAB) 2X THEN
[-------------------]
[-------------------]
[-------------------]
[3-5-6-3-6-5-3-5----]  REPEAT 2X
THEN REPEAT CHORUS TAB

[-----------------------------------------------]
[-----------------------------------------------]
[-----------------------------------------------]
[3—3-3—3—3—3-3-3-3-3-3-33333333-----------------]

REPEAT INTRO TAB MANY TIMES THEN

[-------------------------------------------------]
[-------------------------------------------------]
[-5-4------5-4-------5-4-------5-4----------------]
[-----3-3-3----3-3-3----3-3-3-----3-3-3-0-3-------]

Please rate this tab
thanks.
Composición de Kamikazee
12 vistas

0 comentarios

Ver todos los comentarios

¿Lograste tocar?

0 Tocaron 0 Aún no

¡Graba un video tocando Sobrang Init y envíanoslo!

00:00 / 00:00
Outros vídeos desta música
Repetir Calidad Automático
Outros vídeos desta música
00:00 / 00:00
Automático
OK