Cifra Club

Ung Tagalog

Kamikazee

Cifrado: Principal (guitarra y guitarra eléctrica)
Já pensou em usar uma coleção de roupas do Cifra Club? Responda as perguntas abaixo e nos ajude nessa missão! →
tono: B
tabbed by: Chinno
Email: *

add nio rin me sa friendster ha hehe...


hi nga pla sa mga pcsians and sa bandmates ko \m/
-chinno - kaskasero
-carlo M - tambol
-carlo H- baho
-aljan - kantarero
-bernard - kaskasero

Intro
1------------------------------------------------------------l
2------------------------------------------------------------l
3---7/9-9/11-11/13-13----------------------------------------l
4------------------------------------------------------------l
5---5/7-7/-9--9/11-11----------------------------------------l
6------------------------------------------------------------l

1-----------------------------------------------------------l
2-----------------------------------------------------------l
3-----------------------------------------------------------l
4--------777-77---------------------------------------------l
5---7-7--555-55---------------------------------------------l
6---5-5-----------------------------------------------------l

1-----------------------------------------------------------l
2-----------------------------------------------------------l
3---7/9-9/11-11/13-13---------------------------------------l
4-----------------------------------------------------------l
5---5/7-7/-9--9/11-11---------------------------------------l
6-----------------------------------------------------------l

1----------------------------------------------------------l
2----------------------------------------------------------l
3--------7-7-----------------------------------------------l
4---7-7----------------------------------------------------l
5--------5-5-----------------------------------------------l
6---5-5----------------------------------------------------l

bass 6---------7/1----------------l

1---------------------------------------------------------------l
2---------------------------------------------------------------l
3---------------------------------------------------------------l
4---------------7-77-77-777--------------7-77-77-777------------l
5---7-7-777777--5-55-55-555--7-7-777777--5-55-55-555------------l
6---5-5-555555---------------5-5-555555-------------------------l

1----------------------------------------------------------l
2----------------------------------------------------------l
3---7/9-9/11-11/13-13--------------------------------------l
4----------------------------------------------------------l
5---5/7-7/-9--9/11-11--------------------------------------l
6----------------------------------------------------------l

1----------------------------------------------------------l
2----------------------------------------------------------l
3----------------------------------------------------------l
4--------777-77--------------------------------------------l
5---7-7--555-55--------------------------------------------l
6---5-5----------------------------------------------------l

1----------------------------------------------------------l
2----------------------------------------------------------l
3---7/9-9/11-11/13-13--------------------------------------l
4----------------------------------------------------------l
5---5/7-7/-9--9/11-11--------------------------------------l
6----------------------------------------------------------l

1----------------------------------------------------------l
2----------------------------------------------------------l
3----------------------------------------------------------l
4---------777-77-------------------------------------------l
5---7-7---555-55--7----------------------------------------l
6---5-5-----------5----------------------------------------l

Intro 2

1----------------------------------------------------------l
2----------------------------------------------------------l
3----------------------------------------------------------l  2x
4--99------------------------------------------------------l
5--77-99--11-11--66-77-66-77-9-----------------------------l
6-----77---9--9--44-55-44-55-7-----------------------------l

Verse
        (sampunag taon na ko nanliligaw...)
1----------------------------------------------------------l
2----------------------------------------------------------l
3----------------------------------------------------------l 2x
4--999999--------------------------------------------------l
5--777777--11 11 11 -11-11--777777-999999------------------l
6-----------9--9--9---9--9--555555-777777------------------l

repeat intro 2 2x

repeat verse 2x
        (akala ko pa non' may pagasa sayo...)

Chorus
        (sana'y d na umasa pa...)
1---------------------------------------------------------l
2---------------------------------------------------------l
3---------------------------------------------------------l
4--99999--------------------------------------------------l
5--77777--11 11 11--9999----------------------------------l
6----------9-9--9--7777-----------------------------------l

repeat verse (no lyrics) 2x (faster struming)

1----0---0---0---0----------------------------------------l 4x
2-----0---0---0---0---------------------------------------l
3---------------------------------------------------------l
4---------------------------------------------------------l
5---7---4-------------------------------------------------l
6-----------5---7-----------------------------------------l
3rd time begins the lyrics (pakinggan...)
and 2nd guitar starts to play verse
(faster stuming then slower: mamatay ka na..)

repeat intro 2
        (bakit ba niloko mo...)

(sinayang oras ko)
        then repeat verse (no lyrics) 4x
        4th time pause every strum
Composición de Chito Miranda / Kamikazee
10 vistas
    • ½ Tono
    • A
    • Bb
    • B
    • C
    • Db
    • D
    • Eb
    • E
    • F
    • F#
    • G
    • Ab
  • Agregar a la lista

    0 comentarios

    Ver todos los comentarios

    ¿Lograste tocar?

    0 Tocaron 0 Aún no

    ¡Graba un video tocando Ung Tagalog y envíanoslo!

    00:00 / 00:00
    Outros vídeos desta música
    Repetir Calidad Automático
    Outros vídeos desta música
    00:00 / 00:00
    Automático
    OK