Cifra Club

Wala

Kamikazee

Tab de bajo: Principal
Já pensou em usar uma coleção de roupas do Cifra Club? Responda as perguntas abaixo e nos ajude nessa missão! →
/\ - slide
H  - hammer-on
X  - scratching
~  - let it ring

(intro)
g|------------------------------------------------------------------------------------------|
d|------------------------------------------------------------------------------------------|
a|-------00-44-55--------------------------------00-44-55-----------------------------------|
e|-55-------------0h2-0--5-5/7--7/10---10/12--------------0h2-0---55--7-9-10---5-55555555---|
   xx

(verse 1)napanood sa television...
g|-------------------------------------------------------------------12/10---------|
d|-------4-7-4---------------5-3--------------4-7-4----------9-10-12-------12/14---|
a|---4-7-------7-4-----2-3-5------5-7-----4-7-------7-4---10-----------------------|
e|-5-----------------3-----------------5-------------------------------------------|

(pre-chorus)walang nangyari...
g|--------------------------------------------------------------------------------------|
d|----------------------9-12-9-1212-9-12--------------------------9-12-9-121212121212---|
a|-0-7-9-7--0-7-9-7--10--------------------0-7-9-7--0-7-9-7--10-------------------------|
e|--------------------------------------------------------------------------------------|

(chorus)wala naman kaming napala...
G|------------------------------------------      -------------------------|
D|------------------------------------------ 3x   -------------------------|
A|-------------------------00-44-55--------- then -------------------------|
E|-5---5-5/7--7/10-10/12------------0h2-0---      -55-7-9-10--5-55555555---|

(verse2)sabi mo mayroong solotion...
(verse 1)

(repeat pre-chorus)
(repeat chorus)

(bridge prt.1 - instrumentals))
g|--------------------------------------------------------------------------|
d|---------------------------------------3----------------------------------|
a|-----------------------------------3-5---5-3------------------------------|
e|-55-7-9-10-drum-roll--55-4-3---3-5-----------5---33-2-1--3/12-3/12-3/12---|

--------------------------------------------------------|
---------18-17-16---------------------------------------|
------------------18-17-16------------------------------|
-55-4-3--------------------17-15---33-2-1--guitarfill---|

(bridge prt.2)
g|-----------------------------------------------------------------------------------------------|
d|-----------------------------------------------------------------------------------------------|
a|-----------------------------------------------------------------------------------------------|
e|55555-333333-101010101010--555555-33333333-10101010101010--55-4-5-4-5-4-5-4-333333-101010101010|

(bridge prt.3)mga mahal kong kababayan....
G|-------------------------      -------------------------x--x--x--x--x--x--x--x---|
D|------------------------- 3x   -------------------------x--x--x--x--x--x--x--x---|
A|------------------------- then -------------------------x--x--x--x--x--x--x--x---|
E|-55555-33333-1010101010--      -1717171717171717171717--x--x--x--x--x--x--x--x---|

(repeat chorus)

(outro)bakit hinde kapa mawala...
g|-------------------------------------------------------|
d|-------------------------------------------------------|
a|-0~----------------0~-------------0~--------------0----|
e|-5555555555555555--5555555555555--5555555555555--12~---|
Compositor não encontrado.
Colaboración y revisión:
  • Élison Duarte
13 vistas

0 comentarios

Ver todos los comentarios

¿Lograste tocar?

0 Tocaron 0 Aún no

¡Graba un video tocando Wala y envíanoslo!

00:00 / 00:00
Outros vídeos desta música
Repetir Calidad Automático
Outros vídeos desta música
00:00 / 00:00
Automático
OK