Cifra Club

No Surrender

Kane

Cifrado: Principal (guitarra y guitarra eléctrica)
tono: G
(organ transcribed for guitar)

E|----------------------------------------------------||
B|----------------------7-------------------------7---||
G|-8-----9-----8-----9----9--8-----9-----8-----9----9-||
D|-9-------------------------9------------------------||
A|----------------------------------------------------||
E|----------------------------------------------------||

E|----------------------------------------------------||
B|----------------------7-------------------------7---||
G|-8-----9-----8-----9----9--8-----9-----8-----9----9-||
D|-6-------------------------7------------------------||
A|----------------------------------------------------||
E|----------------------------------------------------||

(Organ)
      G
I was up, I was down I felt almost everything
     G                                  Em
I was lost been around still know hardly anything
                                     C
Get my feet on the ground in the hard of everything
That is just the way that i want it
That is just the way that i want it

(Bass)
      G
Like a shark for the bait, you been always waiting there
      G                                    Em
Every time just to late, I would lost your standing there
                                        C
What a fool what a shame in the hard of everything
That is just the way that i want it
That is just the way that i want it

(Guitar)
C
  C            D
Tonight is the night
G                 G/F#       Em       C
Time to leave the pressure behind
                           D
But there is no surrender
   G
No no

       G
In the hard at the root there is always something else
       G                                Em
In the skies understood and to play for someone else
                                      C
Up and time i do fine was the hard of everything
That is just the way that i want it
That is just the way that i want it

               D
I don t know why
  G                G/F#      Em      C
I guess its just a matter of time
                           D
But there is no surrender
          G
No, no surrender

( G  Em  C )

          C
That is just the way that i want it
        C
That is just the way that i want it
               D
Tonight is the night
G                 G/F#        Em       C
Time to leave the pressure behind
                         D
But there is no surrender,no
Em
   There is no surrender no
Em                       D
   There is no surrender
      G
No surrender
      G        G
I was up I was down.....
00:00 / 00:00
Otros videos de esta canción
Repetir
Otros videos de esta canción
Composición de Dinand Woesthoff
Colaboración y revisión:
  • Lizandra
89 exhibiciones
    • ½ Tono
    • A
    • Bb
    • B
    • C
    • Db
    • D
    • Eb
    • E
    • F
    • F#
    • G
    • Ab
  • Agregar a la lista
    00:00 / 00:00
    OK