Cifra Club

Honey

KARA

Cifrado: Principal (guitarra y guitarra eléctrica)
tono: A
E|-------------------------|-------------------------|
B|-------7-----------7-----|-------5---------5-------|
G|-----7-----------7-------|-----6---------6---------|
D|---7-----------6---------|---6---------6-----------|
A|-------------7-----------|-----------5-------------|
E|-7-----------------------|-5-----------------------|

E|---------------------0-----|-------------------5-----|
B|-----7-----7-----7-7---0---|---5-----5-----5-5---5---|
G|-----7-----7-----7-7-----0-|---6-----6-----6-6-----6-|
D|-----7-----7-----6-6-------|---6-----6-----6-6-------|
A|-------------6/7-----------|-----------4/5-----------|
E|-6/7---7-7-----------------|-5---5-5-----------------|

E|---------------------0-----|-------------------------|
B|-----7-----7-----7-7---0---|---5-----5-------5-------|
G|-----7-----7-----7-7-----0-|---6-----6-----6---6-----|
D|-----7-----7-----6-6-------|---6-----6---6-------6---|
A|-------------6/7-----------|-------------------------|
E|-6/7---7-7-----------------|-5---5-5---5-------------|

Verso 4x:
E|---------------------------|-------------------------|
B|-----7-----7-----7-7-------|---5-----5-----5-5-------|
G|-----7-----7-----7-7-------|---6-----6-----6-6-------|
D|-----7-----7-----6-6-------|---6-----6-----6-6-------|
A|-------------6/7-----------|-----------4/5-----------|
E|-6/7---7-7-----------------|-5---5-5-----------------| 

Refrão:
E|---------------------0-----|-------------------------|
B|-----7-----7-----7-7---0---|---5-----5-----5-5---5---|
G|-----7-----7-----7-7-----0-|---6-----6-----6-6-----6-|
D|-----7-----7-----6-6-------|---6-----6-----6-6-------|
A|-------------6/7-----------|-----------4/5-----------|
E|-6/7---7-7-----------------|-5---5-5-----------------|

E|---------------------------|-------9-----9-----9-----|
B|-----7-----7-----9-9-------|-8---8-----8-----8-----8-|
G|-----7-----7-----7-7-------|---7-----7-----7-----7---|
D|-----7-----7---------------|-7-----------------------|
A|-------------6/7-7-7-------|-------------------------|
E|-6/7---7-7-----------------|-------------------------|

E|-----------------7-7-------|---------------5-5-------|
B|-----7-----7-----7-7-------|---5-----5-----5-5---5---|
G|-----7-----7-----7-7-------|---6-----6-----6-6-----6-|
D|-----7-----7---------------|---6-----6---------------|
A|-------------6/7-7-7-------|-----------4/5-5---------|
E|-6/7---7-7-----------------|-5---5-5-----------------|

E|-----------------9-9-------|----|
B|-----7-----7-----7-7-------|-5~-|
G|-----7-----7---------------|-6~-|
D|-----7-----7-----7-7-------|-6~-|
A|-------------6/7-----------|-x--|
E|-6/7---7-7-----------------|-5~-|

Composición de Sweetune
Colaboración y revisión:
  • BabyJ
32 vistas
    • ½ Tono
    • A
    • Bb
    • B
    • C
    • Db
    • D
    • Eb
    • E
    • F
    • F#
    • G
    • Ab
  • Agregar a la lista

    0 comentarios

    Ver todos los comentarios

    ¿Lograste tocar?

    1 Tocaron 0 Aún no

    ¡Graba un video tocando Honey y envíanoslo!

    00:00 / 00:00
    Outros vídeos desta música
    Repetir Calidad Automático
    Outros vídeos desta música
    00:00 / 00:00
    Automático
    OK