Cifra Club

Umbrella

KARA

Cifrado: Principal (guitarra y guitarra eléctrica)
tono: C (con acordes en la forma de A) Capotraste en 3ª casa
Intro:
E|-------------------------------------------
B|-2--3--5-5-----5--5--5--3-3-----3----------
G|-1--2--4-4-----4--6--4--2-2-----2----------
D|-2--4--6-----6----7--6--4-----4------------
A|-0--2--4---4------5--4--2---2--------------
E|-------------------------------------------

E|-------------------------------------------
B|-2--3--5-5-----5--5--5--3~-----------------
G|-1--2--4-4-----4--6--4--2~-----------------
D|-2--4--6-----6----7--6--4~-----------------
A|-0--2--4---4------5--4--2~-----------------
E|-------------------------------------------

Guitar 2:
E|--------------------------------------12------
B|-10--10--10------10---10-10--10--10-----------
G|------------9h11--------------------9---------
D|----------------------------------------------
A|----------------------------------------------
E|----------------------------------------------

Verse 2x:
E|-----------------------------------------
B|-------3---------0---------2---------2---
G|-----2---------1---------1---------2-----
D|---4---------0---------2---------2-------
A|-2-------------------0-------------------
E|-----------0-------------------2---------

Pre-Chorus:
E|-----------------------------------
B|-------3-3h5-3----------0----------
G|-----2---------2------1---1h2-1----
D|---4----------------0-----------0--
A|-2---------------------------------
E|------------------0----------------

E|-----------------------------------
B|-------2-2h3-2----------2-4-3-2----
G|-----1---------1------2---2--------  (2x)
D|---2----------------2-----2--------
A|-0---------------------------------
E|------------------2----------------
Composición de Issac Lee
Colaboración y revisión:
  • BabyJ
30 vistas
    • ½ Tono
    • A
    • Bb
    • B
    • C
    • Db
    • D
    • Eb
    • E
    • F
    • F#
    • G
    • Ab
  • Agregar a la lista

    0 comentarios

    Ver todos los comentarios

    ¿Lograste tocar?

    0 Tocaron 0 Aún no

    ¡Graba un video tocando Umbrella y envíanoslo!

    00:00 / 00:00
    Outros vídeos desta música
    Repetir Calidad Automático
    Outros vídeos desta música
    00:00 / 00:00
    Automático
    OK