Cifra Club

The Moon Song

Karen O

Cifrado: Principal (guitarra y guitarra eléctrica)
tono: C
Intro: Dm  G  C

     Dm                     G
E|----------------------------------------------------|
B|----------10-----------------------12---------------|
G|----10-------10-------------12--------12------------|
D|-12----12-------12-------12-----12-------12---------|
A|----------------------------------------------------|
E|----------------------------------------------------|
     C
E|----------------------------------------------------|
B|----------13-------13-------13----------------------|
G|----12-------12-------12-------12-------------------|
D|-14----14-------14-------14-------14----------------|
A|----------------------------------------------------|
E|----------------------------------------------------|

Dm      G       C
I'm lying on the moon
   Dm          G    C
My dear, I'll be there soon
       Dm     G      C
It's a quiet starry place
             Dm        G
Time's we're swallowed up
    F                   Fm            C
In space we're here a million miles away

        Dm       G       C
There's things I wish I knew
           Dm      G          C
There's no thing I keep from you
        Dm       G    C
It's a dark and shiny place
         Dm     G
But with you my dear
     F               Fm             C
I'm safe and we're a million miles away

      Dm    G      C
We're lying on the moon
       Dm      G      C
It's a perfect afternoon
            Dm      G      C
Your shadow follows me all day
       Dm        G     F
Making sure that I'm okay and
         Fm           C
We're a million miles away
Composición de Karen O
Colaboración y revisión:
7.819 vistas
    • ½ Tono
    • A
    • Bb
    • B
    • C
    • Db
    • D
    • Eb
    • E
    • F
    • F#
    • G
    • Ab
  • Agregar a la lista

    0 comentarios

    Ver todos los comentarios

    ¿Lograste tocar?

    51 Tocaron 0 Aún no

    ¡Graba un video tocando The Moon Song y envíanoslo!

    00:00 / 00:00
    Otros videos de esta canción
    Repetir Calidad Automático
    Otros videos de esta canción
    00:00 / 00:00
    Automático
    OK