Cifra Club

Bag Of Flash And Thyme

Kashmir

Cifrado: Principal (guitarra y guitarra eléctrica)
tono: E
    ________________________
 /Cruzential             /   The things added are the solos, the outro and a few
/_______________________/    fills. The song is played by:

  1st Guitar, Acoustic (probably Kasper's travel guitar)
  2nd Guitar, Electric
  Piano
Above the tab charts are written some chords. They display what the 1st guitar
plays while the piano and the 2nd guitar plays the solos.


Here are the chords used:
          C   Cmaj7   C/B   Em   Emadd9 and   Em6   Em7   Emmaj7   Em/F#
     e|---0-----0------0----0------2-----0-----0-----0------0--------0---|
     b|---1-----0------1----0------0-----0-----0-----0------0--------0---|
     g|---0-----0------0----0------0-----0-----0-----0------0--------0---|
     d|---2-----2------2----2------2-----4-----2-----0------1--------2---|
     a|---3-----3------2----2------2-----2-----4-----2------2--------2---|
     e|---------------------0------0-----0-----0-----0------0--------2---|

        Em/G   Em/B   F#7-11   Gaug   Am   Asus2   B7   B7b13   B7b9
      |---0------0--------------------0------0-----2------3----------|
      |---0------0------0-------4-----1------0-----0------0------1---|
      |---0------0------3-------4-----2------2-----2------2------2---|
      |---2------2------2-------5-----2------2-----1------1------1---|
      |---2------2------1-------------0------0-----2------2------2---|
      |---3-------------2--------------------------------------------|


INTRO:
| Emadd9 | B7 B7b13 | Emadd9 | B7 B7b13 |


1st VERSE:
Emadd9                           B7   B7b13
 I know how it feels when you're here
Emadd9                                B7   B7b13
 Puts the heat in the air when you're near
Emadd9            B7          C     C/B  Am
 But I will never know what's going on below
       F#7-11     B7   B7b13
 Skin, bones, and hair


2nd VERSE:
Emadd9                      B7   B7b13
 I'd fall from a tree for a smile
Emadd9                           B7   B7b13
 Hit myself and still hurt for a smile
Emadd9            B7       C      C/B       Am
 But I will never find the bag of flash and thyme
       F#7-11 B7
 Shine me the stairs


CHORUS:
B7b9                            Em      Em/F#  Em/G  Em/B
 I dig through the soil and the shields
Asus2*   B7               Em  Emmaj7 Em7 Em6               * |-0-0-0-0-1---1---|
 And the softness of gold turns to steel                     |-0-1-0-1-0---0---|
Cmaj7        B7  Em            Emadd9 Em                     |-2-2-2-2-2---2---|
 I drink too long and I wet my tongue                        |-2-2-2-2-1---1---|
        C      Am       F#7-11 B7                            |-0-0-0-0-2-2-2-2-|
 'Cause I have done you wrong, dead wrong                    |-----------------|


1st SOLO (originally played by piano, but here's a suggestion on guitar):
|E                |B7               |E                |B7               |
|---4-4-----------|-----------------|---4-4-----------|-----------------|
|-------7-7-5-4-5-|---4-4-----------|-------7-7-5-4-5-|---4-4-----------|
|-----------------|-------6-6-4-3-2-|-----------------|-------6-6-4-4-3-|
|-----------------|-----------------|-----------------|-----------------|
|-----------------|-----------------|-----------------|-----------------|
|-----------------|-----------------|-----------------|-----------------|


3rd VERSE:
E                          B7*                             * |-2---2---2---2/4-|
 I talk to the fish on the floor                             |-0---0---0---0---|
E                                   B7*                    * |-2---2---2-------|
 See, my newfound friend never gets bored                    |-1---1---1-------|
E                      B7         C      C/B    Am           |-2-2-2-2-2-2-----|
 My favourite place of all is the closet in the hall         |-----------------|
      F#7-11 B7
 Here no one calls


CHORUS:
B7b9                                 Em      Em/F#  Em/G  Em/B
 See, I dig through the soil and the shields
Asus2*   B7               Em  Emmaj7 Em7 Em6               * |-0-0-0-0-2---2---|
 And the softness of gold turns to steel                     |-0-1-0-1-0---0---|
Cmaj7        B7  Em            Emadd9 Em                     |-2-2-2-2-2---2---|
 I drink too long and I wet my tongue                        |-2-2-2-2-1---1---|
        C      Am       F#7-11 B7                            |-0-0-0-0-2-2-2-2-|
 'Cause I have done you wrong, dead wrong                    |-----------------|


2nd SOLO (played by the 2nd Guitar):
|Emadd9           |B7               |Emadd9           |B7               |
|-----------------|-----------------|-----------------|-----------------|
|-----------------|-----------------|-----------------|-----------------|
|---0---0---0---0-|---0---0---0---0-|---0---0---0---0-|---0---0---0---0-|
|-4---4---4---4---|-4---4---4---4---|-4---4---4---4---|-4---4---4---4---|
|-----------------|-----------------|-----------------|-----------------|
|-----------------|-----------------|-----------------|-----------------|

|Emadd9               |B7           B7b13|Emadd9              |B7            B7b13|
|---------------------|------------------|--------------------|-------------------|
|---------------------|------------------|--------------------|--bend-this-slowly-|
|---------4-4-4-4-----|------------------|----------4-4-4-----|-------throughout--|
|-----------------7-5-|-4~---------------|----------------7-5-|-7b9---the-measure-|
|---------------------|------------------|--------------------|-------------------|
|---------------------|------------------|--------------------|-------------------|

|Emadd9           |B7       C/B C   |Am       F#7-11  |B7          B7b13|
|-----------------|-----------------|-----------------|-----------------|
|-----------------|-----------------|-----------------|-----------------|
|-------5---4-----|---------2-0-0---|---------4---2-0-|-----------------|
|-------------7-5-|-4-------------4-|-2---------------|-1-2-4-----------|
|-----------------|-----------------|-----------------|-----------------|
|-----------------|-----------------|-----------------|-----------------|

|B7b9             |Em  /F#  /G  /B  |Asus2     B7         |Em  Emmaj7 Em7 Em6 |
|-----------------|-----------------|---------------------|-------------------|
|-----------------|---------bend----|---------------------|-------------------|
|-----5-5-5-5-5-7-|-4b5r4---quickly-|---------------------|-------------------|
|-----------------|---------lots-of-|-------7-5-7-7-5-7/9-|---5p4/5---------4-|
|-----------------|---------times---|---------------------|-------------------|
|-----------------|-----------------|---------------------|-------------------|

|Cmaj7     B7      |Em       Gaug     |
|------------------|------------------|
|------------------|---------4~-------|
|------------------|---------x--------|
|-2---7h9-5-7~-----|-----5-7-5~-------|
|------------------|------------------|
|------------------|------------------|

    then this part out of step
   |-------------------------------------------------|
   |-------------------------------------------------|
   |---2~---0h2/3---2h3/5---3h5/7~\---2p0---2h5-2~---|
   |-------------------------------------------------|
   |-------------------------------------------------|
   |-------------------------------------------------|


OUTRO:
 1st guitar:
|---------0--------|-----------------|---------2-------|
|-------1----------|-------------0---|------------3----|
|-----0------------|-----2---------2-|-------0-------4-|
|---2--------------|-------0---1-----|-----2-----------|
|-3----------2-0---|---1-----2-------|---2-------------|
|----------------3-|-2---------------|-0---------------|
|2nd guitar:
|------------------|-----------------|-------------------|
|------------------|-----------------|-------------------|
|------------------|-----------------|-------------------|
|-7----------5-----|-----------------|-------------------|
|--------------9---|-7\----\1--------|-------------------|
|------------------|-----------12\---|\0-----------------|

  - Here's a link to Ertner's original tab:
    http://*



12/ mar/ 05
Please mail me at M* for comments or corrections!
00:00 / 00:00
Otros videos de esta canción
Repetir
Otros videos de esta canción
Composición de Kasper Eistrup
42 exhibiciones
    • ½ Tono
    • A
    • Bb
    • B
    • C
    • Db
    • D
    • Eb
    • E
    • F
    • F#
    • G
    • Ab
  • Agregar a la lista
    00:00 / 00:00
    OK