Cifra Club

Lollypork Stomp

Kashmir

Cifrado: Principal (guitarra y guitarra eléctrica)
tono: G
Tabbed by: Davey


Intro:
E-------------------------------------|
B-------------------------------------|
G-------------------------------------|
D-9---9---9---9---9---9---9---9-------|
A-7p5-7p5-7p5-7p5-7p5-7p5-7p5-7p5-----|
E-------------------------------------|

Verse:
E-------------------------------------|
B-------------------------------------|
G-9-9--8-8--6-6-6-6--5-5-5-5--4-4-4-4-|
D-x-x--x-x--x-x-x-x--x-x-x-x--x-x-x-x-|
A-7-7--6-6--4-4-4-4--3-3-3-3--2-2-2-2-|
E-------------------------------------|

One exception is during the 

"Skinny kids with baseball bats, still kick my ass and tell me that"

E---------------------------------------------|
B---------------------------------------------|
G-9-9--11-11--13--13--6-6--5-5-5-5--4-4-4-4---|
D-x-x--x--x---x---x---x-x--x-x-x-x--x-x-x-x---|
A-7-7--9--9---11--11--4-4--3-3-3-3--2-2-2-2---|
E---------------------------------------------|


Chorus:

(Santa gave us lollypork ...)

E--------------------|---------------------------|
B--------------------|---------------------------|
G-5-5--7-7-------4-4-|-5-5-5-5--7-7-7-7----------|
D-5-5--7-7--5-5--4-4-|-5-5-5-5--7-7-7-7----------|
A-3-3--5-5--5-5--2-2-|-3-3-3-3--5-5-5-5----------|
E-----------3-3------|---------------------------|

E--------------------|---------------------------|
B--------------------|---------------------------|
G-5-5--7-7-------9-9-|-5-5--4-4---9--------------|
D-5-5--7-7--5-5--9-9-|-5-5--4-4---9--9--2--------|
A-3-3--5-5--5-5--7-7-|-3-3--2-2---7--9--2--------|
E-----------3-3------|---------------7--0--------|
00:00 / 00:00
Otros videos de esta canción
Repetir
Otros videos de esta canción
Composición de Kasper Eistrup
25 exhibiciones
    • ½ Tono
    • A
    • Bb
    • B
    • C
    • Db
    • D
    • Eb
    • E
    • F
    • F#
    • G
    • Ab
  • Agregar a la lista
    00:00 / 00:00
    OK