Cifra Club

Shes Made Of Chalk

Kashmir

Cifrado: Principal (guitarra y guitarra eléctrica)
tono: A
Album: No Balance Palace
Transcribed by: seagull
Email: *


"Main riff”
---------------------------------|
---------------------------------|
---------------------------------|
---7--5--9--2--------------------|
---7--5--9--2--------------------|
---5--3--7--0--------------------|

"Power riff”
---------------------------------|
---------------------------------|
---------------------------------|
---5--7—-5--7--2-----------------|
---5--7--5--7--2-----------------|
---3--5--3--5--0-----------------|

---------------------------------|
---------------------------------|
---------------------------------| Listen to song for
------0--0--0--7---7-5-7b-5-7----| number of picks..
---------------7-----------------|
---10--9--8----5-----------------|
   Uhh, let's go...

SOLO part.


Solo guitar
---------------------------------|
--12-14-15-17--------------------|
---------------------------------|
---------------------------------|
---------------------------------|
---------------------------------|
Just do some variations on these
notes with distortion and bend.

Second guitar
---------------------------------|
---------------------------------|
---------------------------------|
---5--7--5--7--2-----------------|
---5--7--5--7--2-----------------|
---3--5--3--5--0-----------------|

There are lots of small fill-notes during the song which I
did not add, they’re so easy that I did not bother..

Enjoy!
00:00 / 00:00
Otros videos de esta canción
Repetir
Otros videos de esta canción
Compositor no encontrado.
47 exhibiciones
    • ½ Tono
    • A
    • Bb
    • B
    • C
    • Db
    • D
    • Eb
    • E
    • F
    • F#
    • G
    • Ab
  • Agregar a la lista
    00:00 / 00:00
    OK