Cifra Club

Serein

Katatonia

Cifrado: Principal (guitarra y guitarra eléctrica)
Selo Cifra Club: esta cifra foi revisada para atender aos critérios oficiais da nossa Equipe de Qualidade.
tono: Db
Rhythm
 P.M.
B|----------------------------------------------------------------------------------------------|
G|----------------------------------------------------------------------------------------------|
D|-------------------------------------------------222-222-222-222-222--222-222-222-222---------|
A|----------------------------------------------------------------------------------------------|
E|-444-444-444-444-444---444-444-444-444-444--------------------------------------------2222222-|
E|------------------------------------------444444----------------------------------------------|

Lead
E|---7/9---7/9-9-----------------------------------------------------------------------|
B|------------------9/10----9h10p9-----------------------------------------------------|
G|-6-----6-------6-------6---------9-8-6h8-6-------------------------------------------|
D|-------------------------------------------------------------------------------------|
A|-------------------------------------------------------------------------------------|
E|-------------------------------------------------------------------------------------|


[Verse]

Rhythm
E|---------------------------------------------------------------------------|
B|---------------------------------------------------------------------------|
G|--6--------------444/6-----------------------------------------------------|
D|--6----6/77------444/6-----------------------------------------------------|
A|--4----6/77------222/4-----------------------------------------------------|
E|-------4/55----------------------------------------------------------------|
Lead
E|/9~~~7h9p7--------------------------------------------------------/7-h9p7-----7---7/9-9~------------------|
B|------------9-9-9/12\9~~7~~~--/9h12p9\7-7h9p7-7~-7---------9--------------9-9---9--------/9-h12p9-7h9p79--|
G|---------------------------------------------------9p8-6~~---6--------------------------------------------|
D|--------------------------------------------------------------(x20)---------------------------------------|
A|-------------------------------------------------------------4--------------------------------------------|
E|----------------------------------------------------------------------------------------------------------|

"So pale next to my love"

[Break]
Rhythm
E|---------------------------------------------------------------------------|
B|---------------------------------------------------------------------------|
G|---6-----/16-------4---\2-----6--\4----------------------------------------|
D|---6-----/16-------4---\2-----6--\4----------------------------------------|
A|---4-----/14-------2---\0-----4--\2----------------------------------------|
E|---------------------------------------------------------------------------|

Lead
E|---------------------------------------------------------------------------|
B|-9~--7--10p9~-7~~----------------------------------------------------------|
G|-----------------9\6~~~--6/9-9~-9/11~--------------------------------------|
D|---------------------------------------------------------------------------|
A|---------------------------------------------------------------------------|
E|---------------------------------------------------------------------------|



[Pre-Chorus]
"Liberating rain"

Rhythm
E|---------------------------------------------------------------------------|
B|---------------------------------------------------------------------------|
G|--------------6----------------4--------6-222222-6----------------4--------|
D|--6---777777--6--4-/6-/7--6----4--------6-222222-6--4-/6-/7---6---4--------|
A|--6---777777--4--4-/6-/7--6----2--------4-000000-4--4-/6-/7---6---2--------|
E|--4---555555-----2-/4-/5--4-------------------------2-/4-/5---4------------|

Lead
E|---------------------9\7/9-9-----------------------------------------------|
B|-----5-5/7-7~-7b^v-5~---------7\5-5~-/9~-7h9p7~----------------------------|
G|----6----------------------------------------------------------------------|
D|--/6-----------------------------------------------------------------------|
A|---------------------------------------------------------------------------|
E|---------------------------------------------------------------------------|


[Chorus]

E|----------------------------------------------------------------------------------------|
B|------------88--88----------------88--88---------------88--88---------------88----------|
G|------------99--99----------------99--99---------------99--99---------------99----------|
D|---/5~-5~---99--99----------------99--99---------------99--99---------------99----------|
A|------------77--77----------------77--77-------/5~-5~--77--77---------------77----------|
E|----------0---0---0x-----/8~-8~-0---0---0x------------0--0---0x-----/8~-8~-0----8-8-8-8-|

[Break]

Rhythm
E|---------------------------------------------------------------------------|
B|---------------------------------------------------------------------------|
G|---6-----/16-------4---\2-----6--\4----------------------------------------|
D|---6-----/16-------4---\2-----6--\4----------------------------------------|
A|---4-----/14-------2---\0-----4--\2----------------------------------------|
E|---------------------------------------------------------------------------|

Lead
E|---------------------------------------------------------------------------|
B|-9~--7--10p9~-7~~----------------------------------------------------------|
G|-----------------9\6~~~--6/9-9~-9/11~--------------------------------------|
D|---------------------------------------------------------------------------|
A|---------------------------------------------------------------------------|
E|---------------------------------------------------------------------------|



[Bridge]

Rhythm - it may not be perfect, especially with the piano doing its best to confuse my ears
E|---------------------------------------------------------------------------------------------------0|
B|---------------------------------------------------------------------------------------------------1|
G|------4--------------5h7p5\4---------4-----2----------4----------------5h7p5\4---0------4---2------2|
D|----------------------------------------------------------------------------------------------------|
A|-0p3---------0h2h3----------------5------------0-2-3------------0h2h3---------------2-----------0-0-|
E|--------3p0----------------------------3-5-------------------0--------------------------------------|

Lead
E|----------------------------------------------------------------------------------------------------|
B|-/13~~~~~~~~~~~~~~~~~~~~~~~~~~~~~~~~~~~~12~~~~~~~~~~~~~~~~~-----------------------13----------------|
G|-----------------------------------------------------------14~~~~~~~~~~~~~~~~~~~~~------------------|
D|----------------------------------------------------------------------------------------------------|
A|----------------------------------------------------------------------------------------------------|
E|----------------------------------------------------------------------------------------------------|


[Intro]

Lead
E|---7/9---7/9-9-----------------------------------------------------------------------|
B|------------------9/10----9h10p9-----------------------------------------------------|
G|-6-----6-------6-------6---------9-8-6h8-6-------------------------------------------|
D|-------------------------------------------------------------------------------------|
A|-------------------------------------------------------------------------------------|
E|-------------------------------------------------------------------------------------|


[Pre-Chorus]
"Liberating rain"

Rhythm
E|---------------------------------------------------------------------------|
B|---------------------------------------------------------------------------|
G|--------------6----------------4--------6-222222-6----------------4--------|
D|--6---777777--6--4-/6-/7--6----4--------6-222222-6--4-/6-/7---6---4--------|
A|--6---777777--4--4-/6-/7--6----2--------4-000000-4--4-/6-/7---6---2--------|
E|--4---555555-----2-/4-/5--4-------------------------2-/4-/5---4------------|

Lead
E|---------------------9\7/9-9-----------------------------------------------|
B|-----5-5/7-7~-7b^v-5~---------7\5-5~-/9~-7h9p7~----------------------------|
G|----6----------------------------------------------------------------------|
D|--/6-----------------------------------------------------------------------|
A|---------------------------------------------------------------------------|
E|---------------------------------------------------------------------------|


[Chorus]

E|----------------------------------------------------------------------------------------|
B|------------88--88----------------88--88---------------88--88---------------88----------|
G|------------99--99----------------99--99---------------99--99---------------99----------|
D|---/5~-5~---99--99----------------99--99---------------99--99---------------99----------|
A|------------77--77----------------77--77-------/5~-5~--77--77---------------77----------|
E|----------0---0---0x-----/8~-8~-0---0---0x------------0--0---0x-----/8~-8~-0----8-8-8-8-|




************************************

| /  Slide up
| h  Hammer-on
| p  Pull-off
| ~  Vibrato
| \  Slide down
| x  Dead note
00:00 / 00:00
Otros videos de esta canción
Repetir
Otros videos de esta canción
8 exhibiciones
    • ½ Tono
    • A
    • Bb
    • B
    • C
    • Db
    • D
    • Eb
    • E
    • F
    • F#
    • G
    • Ab
  • Agregar a la lista

Afinación de cifrado

Afinador online

    00:00 / 00:00
    OK