Cifra Club

I Kissed a Girl

Katy Perry

Cifrado: Principal (guitarra y guitarra eléctrica)
tono: C
Am          G/B       C     Dm
  This was never the way I planned
     F    E
Not my intention
Am            G/B   C       Dm
   I got so brave, drink in hand
      F      E
Lost my discretion

Am            G/B
   It's not what
      C   Dm
I'm used to
       F       E
Just wanna try u on
Am      G/B     C   Dm
   I'm curious for you
        F    E
Caught my attention

Am           C            Dm
 I kissed a girl and I liked it
                   F      E
The taste of her cherry chapstick
Am           C             Dm
 I kissed a girl just to try it
               F           E
I hope my boyfriend don't mind it
Am            C
 It felt so wrong
            D
It felt so right
               F        E
Don't mean I'm in love tonight
Am           C            Dm
 I kissed a girl and I liked it
F   E       Am
 I liked it

  Am          G/B    C        Dm
 No I don't even know your name
    F       E
It doesn't matter
Am            G/B C      Dm
 You're my expiramental game
      F     E
Just human nature

Am          G/B
 It's not what
      C     Dm
Good girls do
     F         E
Not how they should behave
Am        G/B
 My head gets
    C  Dm
So confused
      F   E
Hard to obey

Am           C            Dm
 I kissed a girl and I liked it
                   F      E
The taste of her cherry chapstick
Am           C             Dm
 I kissed a girl just to try it
               F           E
I hope my boyfriend don't mind it
Am            C
 It felt so wrong
            D
It felt so right
                F       E
Don't mean I'm in love tonight
Am           C            Dm
 I kissed a girl and I liked it
F   E
 I liked it

F           Em          Am
Us girls we are so magical
                Em             F
Soft skin, red lips, so kissable
           Em             Am
Hard to resist so touchable
             Em
Too good to deny it
F                           Am
 Ain't no big deal, it's innocent

Am           C            Dm
 I kissed a girl and I liked it
                   F      E
The taste of her cherry chapstick
Am           C             Dm
 I kissed a girl just to try it
               F           E
I hope my boyfriend don't mind it
Am            C
 It felt so wrong
            D
It felt so right
                F       E
Don't mean I'm in love tonight
Am           C            Dm
 I kissed a girl and I liked it
F   E       Am
 I liked it


E|-----------------------|-------------------------|
B|-----------------------|-------------------------|
G|-----------------------|-------------------------|
D|-----------------------|-------------------------|
A|0-0-0-0-0-0-0-0-0-0-0-0|2-2-2-2-2-2-3-3-3-3-3-3--|
E|-----------------------|-------------------------|

E|------------------------|------------------------|
B|------------------------|------------------------|
G|------------------------|------------------------|
D|0-0-0-0-0-0-0-0-0-0-0-0-|3-3-3-3-3-3-2-2-2-2-2-2-|
A|------------------------|------------------------|
E|------------------------|------------------------|(4x)

Refrão:

E|--------------|--------------|
B|--------------|--------------|
G|--------------|--5-----------|
D|--7-----------|--5-----------|
A|--7-----------|--3-----------|
E|--5-----------|--------------| 

E|----------------|----------------------------|
B|----------------|----------------------------|
G|--7---------7-9-|--10------10-10-9-------9-9-|
D|--7---------7-9-|--10------10-10-9-------9-9-|
A|--5---------5-7-|--8-------8--8--7-------7-7-|
E|----------------|----------------------------|(4x)
Composición de Cathy Dennis / Dr. Luke / Katy Perry / Max Martin
Colaboración y revisión:
  • ana maria
  • Isabella Baptistella
  • Diego Martins
10.151 vistas
    • ½ Tono
    • A
    • Bb
    • B
    • C
    • Db
    • D
    • Eb
    • E
    • F
    • F#
    • G
    • Ab
  • Agregar a la lista

    0 comentarios

    Ver todos los comentarios

    ¿Lograste tocar?

    95 Tocaron 5 Aún no

    ¡Graba un video tocando I Kissed a Girl y envíanoslo!

    00:00 / 00:00
    Outros vídeos desta música
    Repetir Calidad Automático
    Outros vídeos desta música
    00:00 / 00:00
    Automático
    OK