Notificações Amigos pendentes

      Keane

      Everybody's Changing

      15.602 reproducciones
      Tono: C
      (intro) C C7+
      
      
      E|---8--------8----7--------7----|--12-------12----7-------7-------|
      B|-------------------------------|---------------------------------|
      g|*-----9-------9-----9-------9--|------9-------9-----9------9--*--|
      d|*-------10------------10-------|--------9-------------9-------*--|
      A|-------------------------------|---------------------------------|
      E|-------------------------------|---------------------------------|
      
      
      (piano)
      
      
      E|----------------------12-12-12---------|
      B|-13-13-13-12-12-12--12--------12-12-12-|
      G|---------------------------------------|(2x)
      D|---------------------------------------|
      A|---------------------------------------|
      E|---------------------------------------|
      
      
      E|----------------------13-13-13---------|
      B|-13-13-13-12-12-12--12--------12-12-12-|
      G|---------------------------------------|(1x)
      D|---------------------------------------|
      A|---------------------------------------|
      E|---------------------------------------|
      
      
      E|----------------------12-12-12-----------|
      B|-13-13-13-12-12-12--12--------12-12-12-13|
      G|-----------------------------------------|(2x)
      D|-----------------------------------------|
      A|-----------------------------------------|
      E|-----------------------------------------|
      
      
      C                        F
      You say you wander your own land
           Dm
      But when I think about it
         G                    C   C7+   C   C7+
      I don't see how you can
      
              C
      You're aching, you're breaking
          F
      And I can see the pain in your eyes
            Dm
      Says everybody's changing
          G               C   C7+    C   C7+
      And I don't know why
      
      (refrão)
      F           G
      So little time
      C                       F
      Try to understand that I'm
      Dm                             G
      Trying to make a move just to stay in the game
         Em7                     A
      I try to stay awake and remember my name
            Dm                        G                C   C7+  C  C7+
      But everybody's changing and I don't feel the same
      
      C
      You're gone from here
      Soon you will disappear
         F
      Fading into beautiful light
        Dm
      'cos everybody's changing
      G                    C   C7+   C   C7+
      And I don't feel right
      
      (refrão)
      F           G
      So little time
      C                       F
      Try to understand that I'm
      Dm                             G
      Trying to make a move just to stay in the game
         Em7                     A
      I try to stay awake and remember my name
            Dm                        G                C   C7+  C  C7+
      But everybody's changing and I don't feel the same
      
      (intro)
      (repete refrão 2x)
        Composición: Richard Hughes / Tim Rice-Oxley / Tom ChaplinColaboración y revision:
        • dr_slump

        Comentarios 2

        140 .
        • Savio Savio: Em 20/01/2016 08:39

          Magic!

        • Gustavo Gustavo: Em 05/06/2015 19:40

          Keane é simplesmente fantástico....

        140 cancelar

        ¿conseguiste tocar?

        • •••

        covers

        ¡Grave un vídeo tocando Everybody's Changing y envie para nosotros!

        Ex.: http://www.youtube.com/watch?v=0IvSvIwGdwk
        ver cover de otras canciones »
        0:00 / 0:00

        Capitulos

          3 versões de guitarra eléctrica dificuldad reproducciones contribuición y correción
          3 versões de contrabajo reproducciones contribuición y correción
          1 versão de Guitar Proformatodownloadscontribuición
          1 versão de partiturasformatodownloadscontribuición
          play/pausefechar subir/bajar velocidad
          6ª cuerda E5ª cuerda A4ª cuerda D3ª cuerda G2ª cuerda B1ª cuerda E
            acordes
            publicidad
            cerrar
            ok