Cifra Club

Somewhere Only We Know

Keane

Tab de bajo: Principal
Intro
G---------------------------------
D---------------------------------
A---------------------------------
E-5-5-5-5-5-5-5-5-4-4-4-4-4-4-4-4-

G---------------------------------
D---------------------------------
A---------------------------------
E-7-7-7-7-7-7-7-7-0-0-0-0-0-0-0-0-

Interlude
There is no bass for a while before
a few solitary notes
G---------------------------------
D---------------------------------
A-5-5~------------7~--------------
E---------------------------------

G---------------------------------
D---------------------------------
A---------------------------------
E--------------------------12~---/

Verse
G----------------------------------------
D----------------------------------------
A----------------------------------------
E-5-5-5-5-5-5-5-5/9h11-11-11-11-11-11-11-

G---------------------------------
D---------------------------------
A---------------------------------
E-7-7-7-7-7-7-7-7-0-0-0-0-0-0-0-0-

G---------------------------------
D---------------------------------
A-----------------6-6-6-6-6-6-6-6-
E-5-5-5-5-5-5-5-5-----------------

G---------------------------------
D---------------------------------
A---------------------------------
E-7-7-7-7-7-7-7-7-0-0-0-0-0-0-0-0-

Pre-Chorus
G---------------------------------
D---------------------------------
A-9-9-9-9-9-9-9-9-4-4-4-4-4-4-4-4-
E---------------------------------

G---------------------------------
D---------------------------------
A-5-5-5-5-5-5-5-5-5-5-5-5-7-7-7-7-
E---------------------------------

Chorus
G---------------------------------
D---------------------------------
A---------------------------------
E-7-7-7-7-7-7-7-7-9-9-9-9-9-9-9-9-

G---------------------------------
D---------------------------------
A-7-7-7-7-7-7-7-7-7-7-7-7-7-7-7-7-
E---------------------------------

Post Chorus/Outro
G---------------------------------
D-0~--------------2~--------------
A---------------------------------
E---------------------------------

Song Structure:
Intro	x2
Interlude	x1
Verse	x2
Pre-Chorus	x2
Chorus	x4
Post Chorus	x1
Pre-Chorus	x4
Chorus	x4
Outro	x2

_______________________________________________________
Contribuição: Gabriel Fernandes do Nascimento(bielonline@terra.com.br)
00:00 / 00:00
Otros videos de esta canción
Repetir
Otros videos de esta canción
Composición de Richard Hughes / Tim Rice-Oxley / Tom Chaplin
441 exhibiciones
00:00 / 00:00
OK