Cifra Club

Sunshine

Keane

Cifrado: Principal (guitarra y guitarra eléctrica)
Selo Cifra Club: esta cifra foi revisada para atender aos critérios oficiais da nossa Equipe de Qualidade.
tono: C
Riff Principal:
----7-7---7-5------7-7-7-5---------|
-------------8-5----------8-5------|
-99--9-9-8-------77-7-8------------|
-----------------------------------|
-----------------------------------|
-----------------------------------|

Ponte:
-----0----0------0--------5-----5--|
----1-1--3-3------1------6-6----6--|
---2----2---2--2---2----7---7---7--|
--2----0------2--------8--------8--|
-0-----------0---------------------|
-----------------------------------|

Refrão:
------0--2-3-2-0-----2------0------|
---2---3--------3---3-3----3-------|
--3----------------4---4--3--------|
-0--0-------------4----------------|
-----------------------------------|
-----------------------------------|

2ª Ponte:
------8--8-12-10--12-10-8----------------------|
-10-10-10-------10-------10-6-3-6s3-10s8-13s10-|
-----------------------------------------------|
-----------------------------------------------|
-----------------------------------------------|
-----------------------------------------------|
Otros videos de esta canción
    4.523 exhibiciones
      • ½ Tono
      • A
      • Bb
      • B
      • C
      • Db
      • D
      • Eb
      • E
      • F
      • F#
      • G
      • Ab
    • Agregar a la lista

    Afinación de cifrado

    Afinador online

      OK