Cifra Club

Body Talks

Keith Richards

Cifrado: Principal (guitarra y guitarra eléctrica)
Selo Cifra Club: esta cifra foi revisada para atender aos critérios oficiais da nossa Equipe de Qualidade.
tono: A
From: DON CZARSKI 
To: * 
Date: Monday, July 26, 1999 6:46 AM

ALBUM: MAIN OFFENDER
TAB BY: DON CZARSKI
E-MAIL: *

                            BODY TALKS

INTRO:              *(A)

E ---------|-------|----------------------|------------------------|
B ---------|-------|----------------------|------------------------|
G ---------|-------|----------------------|------------------------|
D ---------|-------|----------------------|------------------------|
A ---------|-------|----------------------|------------------------|
E --0-5-7--|--5-7--|--5-h6-h7----5-h6-h7--|--5-h6-h7----5-h6-h7----|

(CONTINUED)      D   A **
E -------------|--5---5------|
B -------------|--7---5------|
G -------------|--7---6------|   THEN REPEAT FROM * TO **
D -------------|--7---7------|
A -------------|--5---7------|
E ---5-h6-h7---|--5---5------|

**NOTE:** - THIS IS A "QUIRKY" TYPE SONG AND AT TIMES IS SORT OF
            FREE STYLE IN FORM. IT CENTERS AROUND THREE RIFFS.
            LISTEN CLOSELY TO THE RECORD.
-------------------------------------------------------------------
                sl.    sl.
RIFF 1:  (A)   D /E   B /A   (LISTEN CAREFULLY TO HEAR THIS ONE)

RIFF 2:   E   Esus4   E

RIFF 3:   A  C  D
--------------------------------------------------------------------
    LISTEN TO WHERE TO PLAY RIFF 1*

             *
I'm waitin' baby
  *
Between the lines (I'm leaving)
*                     *    (NOW PLAY PART OF THE INTRO)
Believin'is deceivin'

CONTINUE TO PLAY RIFF 1 - (IMPROVISE AT TIMES)
Watch you move
Brand new new walk
Body talks - in a word
Body talks, baby, yeah


PLAY RIFF 2:(E  Esus4  E) - 3x's OVER THIS PART
You make me shiver - just a quiver
                  E D
The way you shake

BACK TO RIFF 1:
Body talks - shimmy shimmy shake
It's not so hard baby - hard baby

PLAY RIFF 3: ( A  C  D) - 3x's ONCE BEFORE THIS AND TWICE AFTERWARDS
   It's the way you move

BACK TO RIFF 1:
body talks
Read your hips
You make me bite my lip
Waitin' on the flinch

USE RIFF 2 THROUGHOUT
(So alive)
It's just a look
And I read it like a book
It's nothing you said
                      E D
It's something I read

USE RIFF 3 NOW:
It's the way you move
It's the way you move
Just a little move
Swaying hips girl
Swaying hips

INSTRUMENTAL: SOLO OVER RIFF 3

Body talks
Body talks , baby

Body talks
Body talks
Body talks makes no difference baby
You can talk chinese
Taiwanese
Your bodies in motion, notion
I can't wait

Body talks
Body talks
  A    D    E
Close your eyes
Body talks
I'm a good baby
Body talks
Lookie here baby
Body talks
Your body shouts
I swear
I know what you're thinking

        ANY QUESTIONS, CORRECTIONS OR COMMENTS E-MAIL ME AT:
                       *


                           P
                           E
                           A
                         C C C
                        E  E  E
                       D   O   N




_______________________________________________________________
Get Free Email and Do More On The Web. Visit http://*
Otros videos de esta canción
1.679 exhibiciones
    • ½ Tono
    • A
    • Bb
    • B
    • C
    • Db
    • D
    • Eb
    • E
    • F
    • F#
    • G
    • Ab
  • Agregar a la lista

Afinación de cifrado

Afinador online

    OK